Guitar Tabs
song title    band name

Join Us Today!

Don't strum alone...
be a part of the largest online Christian music community. Browse thousands of guitar tabs and chat w/ musicians like yourself.


It's Free!

This tab has not yet been rated for accuracy.Sorry, but you must be logged in to rate this tab.
Click here to log-in, or you can click here to register.
(Registration is free)

All songs owned by corresponding publishing company. If you make copies of any song on this website, be sure to report your usage to CCLI.
 Name: This Town Will Eat You
 Artist: Two Thirty Eight
 E mail: Ozmafan@hotmail.com
 
If anyone can figure out the last part of the song that would
 be great! This is a very accurate tab, i have played along 
 with the song! Two thirty eight forever! Just a word, guitar
 1 has slight chorus to it and guitar 2 has distortion, bass
 i have not figured out

 Standard Tuning

 Guitar 1
 E----0------------------0--------------------------
 B--------0------------------0----------------------
 G------0-----0---0--------0-----0---0--------------
 D----------4---4--------------4---4----------------
 A--3------------------3----------------------------
 E-------------------------------------------------

  Guitar 2
 E---3--3--3-------------
 B---3--3--3-------------
 G---3--3--3-------------
 D---3--3--3-------------
 A---5--5--5-------------
 E---5--5--5-------------

 Guitar 2
 E--7-------10-------------------------------------
 B----8-7-8----8-7--------------------------------
 
Versus
 C-D
 
 Guitar 1
 E-3-3-2-2-3-3-2-2-5-5-2-2-5-5-2-2----------------
 B--3-3-3-3-3-3-3-3-3-3-3-3-3-3-3-3---------------
 G------------------------------------------------
 D------------------------------------------------
 A------------------------------------------------
 E------------------------------------------------
 
 e-----------0------------------------------------
 b-----------0------------------------------------
 g------------------------------------------------
 d-0-5-4-5-4---5-4-5-4-------------7--------------
 a---------------------5-----3-5-5----------------
 E------------------------------------------------

Comments about this tab

sleepingatlast9 - 2006-06-24

this tab seems pretty good. I am not sure about the beginning of it though. The B note sounds off. I would just eliminate it and hold a pause there, although it does sound like another note is hit there, but I don't think it is a B. Also, I believe one of the guitars at the end is just playing

e-0-0-0-0-0-0-0-0-2-2-2-2-2-2-2-2-3-3-3-3-3-3-3-3-5-7-7-7-7-7-7-7

and keeps repeating it. Thats the best I can interpret it. Otherwise good job.


Add a comment/correction

Complimentary Christian Ringtones
Dadamobile and CGR have teamed up to bring your favorite Christian artists right to your phone. Sign up today and get 10 complementary ringtones!
Tab Country
Did you know CGR has a sister site w/ country guitar tabs? Well we do! Its called Tab Country. It has a great archive with a lot of country tabs.
Rockin Tabs
Are you looking for a site that has rock guitar tabs? Then Rockintabs.com is the place for you. It is a budding site with many rock guitar tabs. Submit your tab today.
Tab Gallery
Tab Gallery has a compilation of christian, rock, and country tabs all in one place. Come visit us.