Guitar Tabs
song title    band name

Join Us Today!

Don't strum alone...
be a part of the largest online Christian music community. Browse thousands of guitar tabs and chat w/ musicians like yourself.


It's Free!

Audio Adrenaline - Tremble

This tab has been rated a 1.00 out of 5 for accuracy. (1 vote)Sorry, but you must be logged in to rate this tab.
Click here to log-in, or you can click here to register.
(Registration is free)

All songs owned by corresponding publishing company. If you make copies of any song on this website, be sure to report your usage to CCLI.
Name:tremble
Artist:audio adrenaline
Album:lift

intro
e
-----------------------------------------------------------
-----------------------------------------------------------
-8----9-98----9-9-8----8-8-9----11---9-9-8---------------- 
-9----9-99----9-9-9----9-9-9----11---9-9-9----------------
-----------------------------------------------------------
-----------------------------------------------------------
E

Then you start the verse

Verse
e
-----------------------------------------------------------
-----------------------------------------------------------
-9-9-8-----------------------------------------------------
-9-9-9-----------------------------------------------------
-----------------------------------------------------------
-----------------------------------------------------------
E

Believe it or not this is all you do in verses 1 and 2

Well those are the tabbs I cant figure out the chorus,
Its probably the same as the verse.if you have any corrections e-mail me

delahuertar@hotmail.com

Comments about this tab

happy_face_guy - 2004-01-09

I submitted a whole new song, but the real riff for the chorus is as follows:

----------
---3322---
---2222---
----------
----------
----------


FY A. Guitarist - 2005-04-16

Can Someone PLEASE! Tell me or show me how to Read these things????!!!! My E-mail is DEEPINTOWORSHIP@aol.com if anyone knows how and could tell/show me...


Add a comment/correction

Complimentary Christian Ringtones
Dadamobile and CGR have teamed up to bring your favorite Christian artists right to your phone. Sign up today and get 10 complementary ringtones!
Tab Country
Did you know CGR has a sister site w/ country guitar tabs? Well we do! Its called Tab Country. It has a great archive with a lot of country tabs.
Rockin Tabs
Are you looking for a site that has rock guitar tabs? Then Rockintabs.com is the place for you. It is a budding site with many rock guitar tabs. Submit your tab today.
Tab Gallery
Tab Gallery has a compilation of christian, rock, and country tabs all in one place. Come visit us.