Guitar Tabs
song title    band name

Join Us Today!

Don't strum alone...
be a part of the largest online Christian music community. Browse thousands of guitar tabs and chat w/ musicians like yourself.


It's Free!

Lifehouse - Take Me Away

This tab has been rated a 2.33 out of 5 for accuracy. (6 votes)Sorry, but you must be logged in to rate this tab.
Click here to log-in, or you can click here to register.
(Registration is free)

All songs owned by corresponding publishing company. If you make copies of any song on this website, be sure to report your usage to CCLI.
Title: Take Me Away
Artist: Lifehouse
Album: Stanley Climbfall

Intro: D  G  B  G (one guitar can do this while the other plays those chords:
hold D power chord
e ------------------
b ------------------
g -------0-----0----
d ------0--0--0--0--
a -----0----0-----0-
E ------------------
just repeat that over and over until you start the verse)

Verse:
D  G  B  G x4

Chorus:
D  A  B  G
D  A  B  E/G

Verse:
D  G  B  G x2

Chorus:
D  A  B  G 
D  A  B  E/G

Bridge:
D  G  B  G  (this may not be right for the bridge but it's the best I can do)
x2
solo: (rhythm guitar plays chorus softer thru the solo.)
e---------------------------------------------------------------------
b-----------------------------------------10--12--14--12--15--14------
g-----7--6--11--9--7--9------11--9--12--11-----------------------11--7
d-----------------------7--9------------------------------------------
a---------------------------------------------------------------------
E---------------------------------------------------------------------
just listen to the CD to get the timing.

verse:
D  G  B  G x2

chorus:
D  A  B  G
D  A  B  E/G
D  A  B  G
D  A  B  E/G

I play this song in power chords but you can do it in barre chords too
(that's how Lifehouse does it I think).

Enjoy the Song.

Comments about this tab

B-rad - 2004-03-16

Everything is right except the intro tab is way wrong


Add a comment/correction

Complimentary Christian Ringtones
Dadamobile and CGR have teamed up to bring your favorite Christian artists right to your phone. Sign up today and get 10 complementary ringtones!
Tab Country
Did you know CGR has a sister site w/ country guitar tabs? Well we do! Its called Tab Country. It has a great archive with a lot of country tabs.
Rockin Tabs
Are you looking for a site that has rock guitar tabs? Then Rockintabs.com is the place for you. It is a budding site with many rock guitar tabs. Submit your tab today.
Tab Gallery
Tab Gallery has a compilation of christian, rock, and country tabs all in one place. Come visit us.