Guitar Tabs
song title    band name

Join Us Today!

Don't strum alone...
be a part of the largest online Christian music community. Browse thousands of guitar tabs and chat w/ musicians like yourself.


It's Free!

Ace Troubleshooter - Fortress

This tab has not yet been rated for accuracy.Sorry, but you must be logged in to rate this tab.
Click here to log-in, or you can click here to register.
(Registration is free)

All songs owned by corresponding publishing company. If you make copies of any song on this website, be sure to report your usage to CCLI.
“Fortress”
Ace Troubleshooter-“Ace Troubleshooter”
Original tab by Britain Roda
Edit by Max Mitchell
-This is an edit to Britain Roda's tab: I added the palm mutes, fixed
some minor mistakes, and the like, although there may be some mistakes
on my part, but this is how it sounds to me
------------------------------------
Guitar 1-Drop D Tuning
Guitar 2-Standard Tuning
------------------------------------
Guitar 1 – Do twice
E	|  -------------------------------------------------------------
B	|  --7---------8---------10---------8---------------------------
G	|  ----7-(8x)---7-(8x)-----7-(8x)----7-(8x)---------------------
D	|  -------------------------------------------------------------
A	|  -------------------------------------------------------------
E	|  ------------------------------------------------------------ 


 Guitar 2 – Comes in at 0:14 (partially muting the strings)
E	|  -------------------------------------------------------------
B	|  ---7---------8---------10---------8--------------------------
G	|  -----7-(8x)---7-(8x)-----7-(8x)----7-(4x)--------------------
D	|  -------------------------------------------------------------
A	|  -------------------------------------------------------------
E 	|  -------------------------------------------------------------


Guitar 1 + 2 – at 0:24
E	|  -9- ---------------------------------------------------------
B	|  10-(8x)------------------------------------------------------
G	|  ------------------7------------------------------------------
D	|  ------------------7------------------------------------------
A	|  ------------------5------------------------------------------
E	|  -------------------------------------------------------------


Guitar 2 – at 0:31 – Do twice                
E	|  ---------------------------------------|---------------------
B	|  ---------------------------------------|---------------------
G	|  -14-------12---11-------14--12--11-----|---7--------------
D	|  ---------------------------------------|---7-----------------
A	|  -12-------10----9-------12--10---9-----|---5-------------
E 	  |  ---------------------------------------|--------------------


Verse-Do twice
Guitar 1 – at 0:36
E	|  ------------------------------------------------------------
B	|  ------------------------------------------------------------
G	|  ----7-7---------------------------6-6-------------------
D	|  ----7-7---------------------------7-7--------------------
A	|  ----5-5---------------------------4-4--------------------
E 	|  ------------------------------------------------------------
                Pm---------------------------  pm----------------------




E	|  ------------------------------------------------------------
B	|  ------------------------------------------------------------
G	|  ----------------------------------------------------------
D	|  ---5-------5-4-----5-------5-4-----------------------------
A	|  ---5-------5-4-----5-------5-4----------------------------
E 	|  ---5—------5-4-----5-------5-4-------------------------------
                Pm---    pm--- pm----     pm--------------------------
Guitar 2-Do twice
E	|  --------------------------------------------------
B	|  ------------------------------------------------
G	|  ---7-------7------7--------6-----6------6-------
D	|  -----7-7-----7-7---7---------7-7---7-7---7---------
A	|  -------------------------------------------------
E 	|  ------------------------------------------------


	Chorus
Guitar 1 – at 0:57 strum this repeatedly
E	|  ------------------------------------------------------------
B	|  ------------------------------------------------------------
G	|  -7----------------------------------------------------------
D	|  -7----------------------------------------------------------
A	|  -5----------------------------------------------------------
E 	|  -----------------------------------------------------------

Guitar 2 – at 1:01
E	|  -------------------------------------------------------------
B	|  -------------------------------------------------------------
G	|  -14-------12---11-------14--12--11------------------------
D	|  -------------------------------------------------------------
A	|  -12-------10----9-------12--10---9-----------------------
E 	|  ----------------------------------------------------------

(pickslide by guitar 2)

Guitar 1 – at 1:04 – repeat twice
E	|  ------------------------------------------------------------
B	|  ------------------------------------------------------------
G	|  ------------------------------------------------------------
D	|  --9-------7-------5-5--0-0-5-5--0-0-------------------------
A	|  --9-------7-------5-5--0-0-5-5--0-0-------------------------
E 	|  --9(8x)---7(8x)---5-5--0-0-5-5--0-0-------------------------

Guitar 2 – at 1:04 – repeat twice
E	|  ------------------------------------------------------------
B	|  ------------------------------------------------------------
G	|  --11-----9--------14--s-12--s—-6--7-7---14--s-12--s—-6--7-7-
D	|  -----------------------------------------------------------
A	|  --9(8x)--7(8x)----12--s-10—-s--4--5-5---12--s-10—-s--4--5-5-
E 	|  ------------------------------------------------------------

Verse 2-same as Verse 1
Chorus 2-same as Chorus 2

End of Chorus 2
Guitar 2-at 2:16 – strum once and hold
E	|  ------------------------------------------------------------
B	|  ------------------------------------------------------------
G	|  -14---------------------------------------------------------
D	|  ------------------------------------------------------------
A	|  -12---------------------------------------------------------
E 	|  ------------------------------------------------------------

Guitar 1 – at 2:16 - 
E	|  ------------------------------------------------------------
B	|  ------------------------------------------------------------
G	|  ------------------------------------------------------------
D	|  --16--14--12-------------------------------------------------
A	|  ------------------------------------------------------------
E 	|  ------------------------------------------------------------


Interlude 
After bass solo

Guitar 2– at 2:37 – no distortion

E	|  ------------------------------------------------------------
B	|  ------------------------------------------------------------
G	|  -7--9--11-13--14--16--18------------------------------------
D	|  ------------------------------------------------------------
A	|  -5--7--9—-11--12--14--16------------------------------------
E 	|  ------------------------------------------------------------

Guitar 1– at 2:46
E	|  ------------------------------------------------------------
B	|  ------------------------------------------------------------
G	|  -7----7----6----9------------------------------------------
D	|  -7----7----6----9-------------5--4--5--4--------------------
A  	|  -5----5----4----7-------------5--4--5--4------------------
E	|  ------------------------------5--4--5—-4-------------------
           Pm----
Guitar 2– at 2:54
E	|  ------------------------------------------------------------
B	|  ------------------------------------------------------------
G	|  ----7--6----7--6-----7--6-----7--6-------------------------
D	|  ---------7--------7-------7--------7-----------------------
A	|  ------------------------------------------------------------
E 	|  ------------------------------------------------------------

Guitar 1– at 3:00
E	|  ------------------------------------------------------------
B	|  ----------------p-------------------------------------------
G	|  -7---------6----a---------------------------------------
D	|  -7---------6----u------------5--4--5--4--------------------
A  	|  -5---------4----s------------5--4--5--4------------------
E	|  ----------------e------------5--4--5—-4-------------------

Guitar 2– at 3:04
E	|  ------------------------------------------------------------
B	|  ------------------------------------------------------------
G	|  ----------------11------7--6----7--6-----7--6-----7--6-------
D	|  ----------------------------7--------7--------7--------7----
A	|  -----------------9-------------------------------------------
E 	|  ------------------------------------------------------------

(pick slide by guitar 2)

Guitar 1-at 3:11
E	|  ------------------------------------------------------------
B	|  --------------------p--------------------------------------
G	|  -7----14---16---18--a-----------------------------------
D	|  -7------------------u-------------------------------------
A  	|  -5----12---14---16--s-----------------------------------
E	|  --------------------e---------------—---------------------

Guitar 2– at 3:12
E	|  ------------------------------------------------------------
B	|  --------------------p---------------------------------------
G	|  --12-s-11-s-12-s-14-a-------------------------------------
D	|  --------------------u--------------------------------------
A	|  --10-s--9-s-10-s-12-s-------------------------------------
E 	|  --------------------e-------------------------------------

Guitar 1 – at 3:16
E	|  ------------------------------------------------------------
B	|  ------------------------------------------------------------
G	|  ------------------------------------------------------------
D	|  --9-------7-------5-5--0-0-5-5--0-0-------------------------
A	|  --9-------7-------5-5--0-0-5-5--0-0-------------------------
E 	|  --9(8x)---7(8x)---5-5--0-0-5-5--0-0-------------------------

Guitar 2 – at 3:16 
E	|  ------------------------------------------------------------
B	|  ------------------------------------------------------------
G	|  --11-----9--------14--s-12--s—-6--7-7-s-14--s-12--s—-6--7-7-
D	|  -----------------------------------------------------------
A	|  --9(8x)--7(8x)----12--s-10—-s--4--5-5-s-12--s-10—-s--4--5-5-
E 	|  ------------------------------------------------------------

Guitar 1 – at 3:27 
E	|  ------------------------------------------------------------
B	|  ------------------------------------------------------------
G	|  ------------------------------------------------------------
D	|  --9-------7-------5-5--0-0-5-5--0-0-----------x--x--x--------
A	|  --9-------7-------5-5--0-0-5-5--0-0-----------x--x--x--------
E 	|  --9(8x)---7(8x)---5-5--0-0-5-5--0-0-----------x--x--x--------
                                                         ^touch the first 3 
strings right next to the nut

Guitar 2 – at 3:27 
E	|  ------------------------------------------------------------p
B	|  ------------------------------------------------------------a
G	|  --11-----9--------14--s-12--s—-6--7-7-s-14--s-12--s—-6--7-7-u
D	|  ------------------------------------------------------------s
A	|  --9(8x)--7(8x)----12--s-10—-s--4--5-5-s-12--s-10—-s--4--5-5-e
E 	|  ------------------------------------------------------------

Guitar 1 – at 3:38
E	|  ------------------------------------------------------------
B	|  ------------------------------------------------------------
G	|  ------------------------------------------------------------
D	|  --9-------7-------5-5--0-0-5-5--0-0-------------------------
A	|  --9-------7-------5-5--0-0-5-5--0-0-------------------------
E 	|  --9(8x)---7(8x)---5-5--0-0-5-5--0-0-------------------------



Guitar 2 – at 3:38
E	|  ------------------------------------------------------------
B	|  ------------------------------------------------------------
G	|  --11-----9--------14--s-12--s—-6--7-7-s-14--s-12--s—-6--7-7-
D	|  ------------------------------------------------------------
A	|  --9(8x)--7(8x)----12--s-10—-s--4--5-5-s-12--s-10—-s--4--5-5-
E 	|  ------------------------------------------------------------


Guitar 1 – at 3:49 
E	|  ------------------------------------------------------------
B	|  ------------------------------------------------------------
G	|  --------------------------------------l--r------------------
D	|  --9-------7-------5-5--0-0-5-5--0-0---e--i------------------
A	|  --9-------7-------5-5--0-0-5-5--0-0---t--n------------------
E 	|  --9(8x)---7(8x)---5-5--0-0-5-5--0-0------g------------------

Guitar 2 – at 3:49 
E	|  ------------------------------------------------------------
B	|  ------------------------------------------------------------
G	|  --11-----9-------19----18---19---21---19--18--19--l--r------
D	|  --------------------------------------------------e--i------
A	|  --9(8x)--7(8x)---17----16---17---19---17--16--17--t--n------
E 	|  -----------------------------------------------------g------

Comments about this tab

No comments/corrections found. Add your own

Complimentary Christian Ringtones
Dadamobile and CGR have teamed up to bring your favorite Christian artists right to your phone. Sign up today and get 10 complementary ringtones!
Tab Country
Did you know CGR has a sister site w/ country guitar tabs? Well we do! Its called Tab Country. It has a great archive with a lot of country tabs.
Rockin Tabs
Are you looking for a site that has rock guitar tabs? Then Rockintabs.com is the place for you. It is a budding site with many rock guitar tabs. Submit your tab today.
Tab Gallery
Tab Gallery has a compilation of christian, rock, and country tabs all in one place. Come visit us.