Guitar Tabs
song title    band name

Join Us Today!

Don't strum alone...
be a part of the largest online Christian music community. Browse thousands of guitar tabs and chat w/ musicians like yourself.


It's Free!

This tab has been rated a 2.00 out of 5 for accuracy. (2 votes)Sorry, but you must be logged in to rate this tab.
Click here to log-in, or you can click here to register.
(Registration is free)

All songs owned by corresponding publishing company. If you make copies of any song on this website, be sure to report your usage to CCLI.
Artist: 12 stones
Song: let go
Album: daredevil sondtrack
Transcribed by: Todd Hanchock
guitar_freak_04@hotmail.com

This is all of the song except for the short little solos eric adds in
during the vereses.
Drop D tuning EBGDAD
INRO:
------------------------------------------------------------------
-----------------------------------------3-3----------------------
---10---10-10h12p10-9----9-9h10p9---5---5------5--5-/-7-----------    X2
---0--0-------------0---0-----------3-3------0----3-/-5-----------
------------------------------------------------------------------
------------------------------------------------------------------


Verse: lisen for strumming patterns cuz im only gonna list the chords

--------------------------------------------------------
---9-9---7-7-----5-5-/---7----9-------------------------
---7-7---5-5-----3-3-/---5----7-------------------------
---7-7---5-5-----3-3-/---5----7-------------------------
---7-7---5-5-----3-3-/---5----7-------------------------


chourus......again listen for strumming patters cuz im only listing how
it goes the first time.

-------------------------------------------------------------------
-------------------------------------------------------------------
----5-5----2----5--5----------2---5-/--7-/--9--/-7-----------------
----5-5----0----3--3----------0---3-/--5-/--7--/-5-----------------       X2
----3-3----0----3--3---0-2-3--0---3-/--5-/--7--/-5-----------------
-----------0----3--3----------0---3-/--5-/--7--/-5-----------------


Verse 2 is the same as verse 1

Bridge

"And as time passes......."
Lisen for timing in this section too. sorry i cant figure our
eric's background solo
-----------------------------------------------------
-----------------------------------------------------
----9--/---7-/---5--5--5---/--7--/--9----------------
----7--/---5-/---3--3--3--/---5-/---7----------------        X2
----7--/---5-/---3--3--3--/---5-/---7----------------
----7--/---5-/---3--3--3--/---5-/---7----------------

After the bridge just go back to the chorus... and then end it with the
same intro only slower. Questions email me at guitar_freak_04@hotmail.com

Comments about this tab

RICK LOVELADY - 2004-06-23

ITS TUNED A WHOLE STEP DOWN AND THE INTRO IS DONE IN FINGERSTYLE


Add a comment/correction

Complimentary Christian Ringtones
Dadamobile and CGR have teamed up to bring your favorite Christian artists right to your phone. Sign up today and get 10 complementary ringtones!
Tab Country
Did you know CGR has a sister site w/ country guitar tabs? Well we do! Its called Tab Country. It has a great archive with a lot of country tabs.
Rockin Tabs
Are you looking for a site that has rock guitar tabs? Then Rockintabs.com is the place for you. It is a budding site with many rock guitar tabs. Submit your tab today.
Tab Gallery
Tab Gallery has a compilation of christian, rock, and country tabs all in one place. Come visit us.