Guitar Tabs
song title    band name

Join Us Today!

Don't strum alone...
be a part of the largest online Christian music community. Browse thousands of guitar tabs and chat w/ musicians like yourself.


It's Free!

Relient K - Failure To Excommunicate

This tab has been rated a 4.67 out of 5 for accuracy. (3 votes)Sorry, but you must be logged in to rate this tab.
Click here to log-in, or you can click here to register.
(Registration is free)

All songs owned by corresponding publishing company. If you make copies of any song on this website, be sure to report your usage to CCLI.
Failure To Excommunicate
Relient K

This song has already been tabbed out but I just felt that it wasn't right.
So through hours of trying to figure out what was wrong I found it the
intro had a bit missing. I have re-done the intro and the rest is the same
if you have any suggestions please email me about whats on your mind
p-pull off
h-hammer on
x-mute
I believe almost everything is distorted but the end isn't and i have noted
that
 Intro
e|-10-10-10-10-10-10p9-9-9-9-9-9h12-12-12-12-12-12-12p11-11h12-11--------------
b|-----------------------------------------------------------------------------
g|-----------------------------------------------------------------------------
D|-----------------------------------------------------------------------------
A|-----------------------------------------------------------------------------
E|-----------------------------------------------------------------------------

 Verse 
e-|----------------------------------------------------------------------------
B-|----------------------------------------------------------------------------
G-|-4----7-7-7-7-7-------------2-2-2-2-2-------------7-7-7-7-7-----------------
D-|-4-5--7-7-7-7-7--7-7-7-7-7--2-2-2-2-2--5-5-5-5-5--7-7-7-7-7--7-7-7-7-7------
A-|-2-5--5-5-5-5-5--7-7-7-7-7--4-4-4-4-4--5-5-5-5-5--5-5-5-5-5--7-7-7-7-7------
E-|---3-------------5-5-5-5-5-------------3-3-3-3-3-------------5-5-5-5-5------
                                                                              
Riff 1
e-|----------------------------------------------------------------------------
B-|----------------------------------------------------------------------------
G-|--------------------------------------------------------------------7-7-7-7-
D-|-5-x-x-x-x-x--7-x-x-x-x-x--8-x-x-x-x-x--9-9--7-7--5-5-5-5--7-7-7-7--7-7-7-7-
A-|-5-x-x-x-x-x--7-x-x-x-x-x--8-x-x-x-x-x--9-9--7-7--5-5-5-5--7-7-7-7--5-5-5-5-
E-|-3-x-x-x-x-x--5-x-x-x-x-x--6-x-x-x-x-x--7-7--5-5--3-3-3-3--5-5-5-5----------
                                                                              

e-|---------------------------------
B-|---------------------------------
G-|------------------------------7--
D-|--9-9--7-7--5-5-5-5--7-7-x-x--7--
A-|--9-9--7-7--5-5-5-5--7-7-x-x--5--
E-|--7-7--5-5--3-3-3-3--5-5-x-x-----
          

Back to intro

Verse 

Riff 1


Riff 2 clean some strumming

e-|------------------------------------------------
B-|------------------------------------------------
G-|---7--------------------------------------------
D-|---7--7---9---7---5--------------9---7---5------
A-|---5--7---9---7---5---X4---------7---7---5-X1--
E-|------5---7---5---3--------------7---5---3------
                                                                              
That's all enjoy. peace to everyone Jesus rocks!!!! and so does Relient k
and P.O.D!!!! see you all later!!

Comments about this tab

eastwestfreak - 2004-11-09

amen to that brother


sumfears - 2005-01-31

dude it's perfect and man what a fun song to play (well all relient k songs r) ROCK on for JESUS!!


keyblade - 2006-08-08

good job every one remember jsut do alot of struming on rif 2


Add a comment/correction

Complimentary Christian Ringtones
Dadamobile and CGR have teamed up to bring your favorite Christian artists right to your phone. Sign up today and get 10 complementary ringtones!
Tab Country
Did you know CGR has a sister site w/ country guitar tabs? Well we do! Its called Tab Country. It has a great archive with a lot of country tabs.
Rockin Tabs
Are you looking for a site that has rock guitar tabs? Then Rockintabs.com is the place for you. It is a budding site with many rock guitar tabs. Submit your tab today.
Tab Gallery
Tab Gallery has a compilation of christian, rock, and country tabs all in one place. Come visit us.