Guitar Tabs
song title    band name

Join Us Today!

Don't strum alone...
be a part of the largest online Christian music community. Browse thousands of guitar tabs and chat w/ musicians like yourself.


It's Free!

Chevelle - Send The Pain Below

This tab has been rated a 1.33 out of 5 for accuracy. (3 votes)Sorry, but you must be logged in to rate this tab.
Click here to log-in, or you can click here to register.
(Registration is free)

All songs owned by corresponding publishing company. If you make copies of any song on this website, be sure to report your usage to CCLI.
Chevelle
Send the pain below

BY ANDREW
~This song should be played in drop C

Intro/Chorus:
|--------------------------------------------------------------------
|--------------------------------------------------------------------
|------------------------------------9-9-9-9-9-9-9-5-5-5-5-5-5-5-----
|-10-10-10-10-10-10-10-7-7-7-7-7-7-7-7-7-7-7-7-7-7-3-3-3-3-3-3-3-0~--
|-10-10-10-10-10-10-10-7-7-7-7-7-7-7-7-7-7-7-7-7-7-3-3-3-3-3-3-3-0~--
|-10-10-10-10-10-10-10-7-7-7-7-7-7-7-7-7-7-7-7-7-7-3-3-3-3-3-3-3-0~--

Verse:
|--------------------------------------------------------------------
|--------------------------------------------------------------------
|-9-9-9-9-9-9-9-9-9-9-9-9-9-9-9-9-5/7-9-9-9-9-9-9-9-9-9-9-9-9-9-9-9--
|-x-x-x-x-x-x-x-x-x-x-x-x-x-x-x-x-x-x-x-x-x-x-x-x-x-x-x-x-x-x-x-x-x--
|-7-7-7-7-7-7-7-7-7-7-7-7-7-7-7-7-3/5-7-7-7-7-7-7-7-7-7-7-7-7-7-7-7--
|-0-0-0-0-0-0-0-0-0-0-0-0-0-0-0-0-0-0-0-0-0-0-0-0-0-0-0-0-0-0-0-0-0--

Bridge:
|--------------------------------------------------------------------
|--------------------------------------------------------------------
|--------------------------------------------------------------------
|-0h2-2-2p0-0-0h5-5-5p0-0h2-2-2p0-0-0h5-5-5p0------------------------
|-0h2-2-2p0-0-0h5-5-5p0-0h2-2-2p0-0-0h5-5-5p0------------------------
|-0h2-2-2p0-0-0h5-5-5p0-0h2-2-2p0-0-0h5-5-5p0------------------------

Comments about this tab

jesusfreek1379 - 2004-04-01

this isnt how the song is played. go to olga.net to get the real tabs. but these are close. JeSuS rOcKs My SoX!!!!


Add a comment/correction

Complimentary Christian Ringtones
Dadamobile and CGR have teamed up to bring your favorite Christian artists right to your phone. Sign up today and get 10 complementary ringtones!
Tab Country
Did you know CGR has a sister site w/ country guitar tabs? Well we do! Its called Tab Country. It has a great archive with a lot of country tabs.
Rockin Tabs
Are you looking for a site that has rock guitar tabs? Then Rockintabs.com is the place for you. It is a budding site with many rock guitar tabs. Submit your tab today.
Tab Gallery
Tab Gallery has a compilation of christian, rock, and country tabs all in one place. Come visit us.