Guitar Tabs
song title    band name

Join Us Today!

Don't strum alone...
be a part of the largest online Christian music community. Browse thousands of guitar tabs and chat w/ musicians like yourself.


It's Free!

Third Day - Consuming Fire

This tab has been rated a 4.17 out of 5 for accuracy. (12 votes)Sorry, but you must be logged in to rate this tab.
Click here to log-in, or you can click here to register.
(Registration is free)

All songs owned by corresponding publishing company. If you make copies of any song on this website, be sure to report your usage to CCLI.
Consuming Fire
Third Day

b-bend		r-release
h-hammer on	p-pull off
v-vibrato	~-hold the note
/-slide up	\-slide down


INTRO

e|--------(12)----------(7)----------(5)--------------------------
B|---(12)-----------(7)----------(5)------------------------------


SOLO



e|---------------------------------------------------------------------------
B|---15~~~---15~~~---15~~~~-------12h15b17~r15-12h13b15r13-12---14b15r14vv---
G|---14b16---14b16---14b16r14vv------------------------------12--------------
D|---------------------------------------------------------------------------
A|---------------------------------------------------------------------------
E|---------------------------------------------------------------------------


e|-----------------------------------------------------------------
B|---------------------------------------------------15~~~~--------
G|----12-11p9---14p12-11h12-11-----------------------14b16r14vv----
D|---9--------12--------------12---------14p12---------------------
A|------------------------------12\10\--------14p12----------------
E|-----------------------------------------------------------------


e|---00-00---00---00-00---00---00----15-------------------------
B|---17-17---15---13-13---12---14v-----17p15---17b19~~r17vvvv---
G|------------------------------------------16------------------
D|--------------------------------------------------------------
A|--------------------------------------------------------------
E|--------------------------------------------------------------

Comments about this tab

GrockforChrist - 2005-05-26

This tab is the BOMB so thanks for it i love this song!!!!!!


cheese boy - 2005-10-23

hey man the solo is great but i dont get the intro HEEEEELP MEEEEE


THewson - 2005-10-24

I play the intro as:
e----12-*let ring*----19-19-24-
B-12---------------19----------


seraph - 2005-11-22

in a tab, numbers in parentheses () are harmonic notations. Play the harmonic above the fret of whatever number is in the parentheses. So (12) means to play the harmonic above the 12th fret.

If you don't know what harmonics are, then take your guitar and just touch the string above the 12th fret. don't push down on it at all, but touch it firmly. now, pluck the string, and a high ringing tone will sound. that's harmonics. the 12th fret is the easiest place to sound harmonics, buth the 5th and 7th also sound, and sometimes I can get the 3rd to do as well. But some frets are harder than others. it's all physics and frequencies and stuff I don't know. I just know it works. Usually, distortion helps pick up the harmonic.


TEKaspar - 2006-03-28

There's also a harmonic on the 4th and 9th fret but they're kinda useless. Also, it helps the harmonic tone if you lift your finger off of the string once you have plucked the tone.


mmmthasgood1 - 2006-04-03

e----12-*let ring*----19-19-24-
B-12---------------19----------

Those 19's are the same notes as the 7's just higher up. In case you didnt know. I like your version but I only have 21 frets and that is a huge bend to get a 24. ouch.


mmmthasgood1 - 2006-04-04

sorry to add another, but I think it really goes like this:
e----(12)-----(7)--(5)--- [harmonics]
B--(12)-----(7)----------

When you listen to the song. He plays the two twelves, then pauses for 4? seconds, then he plays the sevens and jumps to that five.


jesusfreak936 - 2006-06-23

to compromise, if you don't have a 24 fret guitar...play this for the intro

[--12*----14-----12*--]
[-12--------12--12----]

(* is the notes you hold out) i dont feel like doing the rest of the intro because the rest is written out by other tabs on this site, so im not even going to bother...


Add a comment/correction

Complimentary Christian Ringtones
Dadamobile and CGR have teamed up to bring your favorite Christian artists right to your phone. Sign up today and get 10 complementary ringtones!
Tab Country
Did you know CGR has a sister site w/ country guitar tabs? Well we do! Its called Tab Country. It has a great archive with a lot of country tabs.
Rockin Tabs
Are you looking for a site that has rock guitar tabs? Then Rockintabs.com is the place for you. It is a budding site with many rock guitar tabs. Submit your tab today.
Tab Gallery
Tab Gallery has a compilation of christian, rock, and country tabs all in one place. Come visit us.