Guitar Tabs
song title    band name

Join Us Today!

Don't strum alone...
be a part of the largest online Christian music community. Browse thousands of guitar tabs and chat w/ musicians like yourself.


It's Free!

This tab has been rated a 4.33 out of 5 for accuracy. (9 votes)Sorry, but you must be logged in to rate this tab.
Click here to log-in, or you can click here to register.
(Registration is free)

All songs owned by corresponding publishing company. If you make copies of any song on this website, be sure to report your usage to CCLI.
Artist: Living Sacrifice
Song: Symbiotic
Album: Conceived In Fire
Transcribed by: Matthew Cassetta (sk8onconcrete@aol.com)


Ok, this is in dropped D flat tuning (Drop the 
low E string one step, then downtune the whole 
guitar one half step). There is heavy distortion 
throughout the entire song for both guitars. Because 
I couldn't figure what notes Rocky was playing, I changed
one of the parts on the solo (the part in parentheses,
as a matter of fact)  


* = palm mute
x = mute string for octaves
X = deaden the string w/ palm

Chorus
Gtr. 1       Gtr. 2  Gtr.2                            
E-----------|------|----------------------------------| 
B-----------|------|-8-10--11-111111111111------------| 
G-----------|------|-x--x--x--x-x-x-x-x-x-------------| 
D-0-00-0----|------|-5--7--8--8-8-8-8-8-8-------------| 
A-0-00-0----|-5-6--|----------------------------------| 
D-0-00-0----|--0---|----------------------------------| 

Verse
Gtr.1                  Gtr.2                
E---------------------|-------------------------------|
B---------------------|-------------------------------|
G---------------------|-------------------------------|
D-4---5---5---5---5-5-|-------------------------------|
A-5-X-6-X-6-X-6-X-6-6-|-5p3p0-6-X-6-X-6-X-6-6---------|
D-0-X-0-X-0-X-0-X-0-0-|-------0-X-0-X-0-X-0-0---------| 


Verse
Gtr. 1                                     
E-----------------------------------------------------| 
B-----------------------------------------------------| 
G-----------------------------------------------------| 
D-----------------2---------------2-------------------| 
A------3-X-2-X-3-X-3---3-X-2-X-3-X-3------------------| 
D-3p2-X-------------3-X-------------------------------| 

Gtr. 2                                 
E-----------------------------------------------------|
B-----------------------------------------------------|
G-----------------------------------------------------|
D-----------------------------------------------------|
A-2222222222222222-3333333333333333-------------------|
D-2222222222222222-3333333333333333-------------------|            
  **************** ****************                      

Bridge 
Gtr. 1                  Gtr. 2                          
E----------------------|------------------------------|
B----------------------|------------------------------|
G----------------------|--------------pick-slide------|
D---------00000000-----|-0----0-------pick-slide------|
A--5-6-5b-00000000-----|-0----0-------pick-slide------|
D-0-------00000000-----|-0----0-------pick-slide------|
          ********
Both guitars                                      
E------------------|----------------------------------|
B------------------|----------------------------------|
G------------------|----------------------------------|
D---------00000000-|-0-0-1-0-00000000-----------------|
A--5-6-5b-00000000-|-0-0-1-0-00000000-----------------|
D-0-------00000000-|-0-0-1-0-00000000-----------------|
          ********           ********

Solo      (gotta have really fast fingers for this one)
Gtr. 2
E-----------------------------------------------------|
B--7/15-16p15p14h15-16p15p14h15-16p15p14-15p14---14---|
G-7-------------------------------------------15----15|
D-----------------------------------------------------|
A-----------------------------------------------------|
D-----------------------------------------------------|

Solo (continued)
Gtr. 2          play the part in parentheses five times         
E-----------------------------------------------------|
B-14h15p14p12h14b-(14h15p14p12h14)---12h14p12p11------|
G-----------------------------------------------------|
D-----------------------------------------------------|
A-----------------------------------------------------|
D-----------------------------------------------------|

Solo (continued)
Gtr. 2
E-----------15-14-15-14-14h15p14--14------------------|
B-------------------------------16--16-15-16-15-16----|
G-11h12h11--------------------------------------------|
D---------12------------------------------------------|
A-----------------------------------------------------|
D-----------------------------------------------------|

Solo (continued)
Gtr. 2
E-13--15--17--22b-\-----------------------------------|
B-17b-19b-21b-----------------------------------------|
G-----------------------------------------------------|
D-----------------------------------------------------|
A-----------------------------------------------------|
D-----------------------------------------------------|






I didn't put how many times u play each part,
but after listening to the song, u should be able to 
figure it out pretty easily. 

I hope this tab helped you, e-mail me if u have any questions 
about this tab, or any suggestions of ways to improve my next
tab.

Comments about this tab

iamthemetalking - 2004-10-03

First off, good job tabbing the song, its a toughie, but the solo sounds different than how you have it. the solo, in my opinion goes something like this...most of it is already right BTW.
***********same as original********
e------------------------------------------
b------7/15-15h16p15p14h15-15h16p15p14h15--
g---7---------------------------------------

this part is my own interpretation...do it as fast as you can, may take practice FYI, this is at 2:40 into the song

here's a tip...if your having trouble doing that, you can separate this tab into 3 notes at a time, and pick the string every third note, but if not, simply mute the 'g'string with your picking hand, and let your fingers FLY, baby. (unless your fingers are short, and aren't clumsy like mine, you don't have to mute) but it sounds cleaner if you do.
e--------------------------------------
b--16p15p14h15p14p13h14p13p12p11h12p11p9h10-------------------
g--------------------------------------

this part is exactly 2 seconds after that. get that pinky finger into gear.


do part in perenthesis 5 or 6 times...this almost sounds better picking each note individually...depends on your style and skill, really.
e------------------------------17b18--15--
b--(-15h16h18h20p18p16p15-)-----------------------------------
g--------------------------------------

and the rest of the solo should be right in the original tab...if you notice any mistakes in my correction, or just wanna talk bout LS, email kasper.donut@gmail.com


Add a comment/correction

Complimentary Christian Ringtones
Dadamobile and CGR have teamed up to bring your favorite Christian artists right to your phone. Sign up today and get 10 complementary ringtones!
Tab Country
Did you know CGR has a sister site w/ country guitar tabs? Well we do! Its called Tab Country. It has a great archive with a lot of country tabs.
Rockin Tabs
Are you looking for a site that has rock guitar tabs? Then Rockintabs.com is the place for you. It is a budding site with many rock guitar tabs. Submit your tab today.
Tab Gallery
Tab Gallery has a compilation of christian, rock, and country tabs all in one place. Come visit us.