Guitar Tabs
song title    band name

Join Us Today!

Don't strum alone...
be a part of the largest online Christian music community. Browse thousands of guitar tabs and chat w/ musicians like yourself.


It's Free!

Third Day - Forty Days

This tab has been rated a 5.00 out of 5 for accuracy. (1 vote)Sorry, but you must be logged in to rate this tab.
Click here to log-in, or you can click here to register.
(Registration is free)

All songs owned by corresponding publishing company. If you make copies of any song on this website, be sure to report your usage to CCLI.
Song: FORTY DAYS
Artist: Third Day
Album: COME TOGETHER
2001 New Spring Publishing / ASCAP 

Tabbed by Andrew Schell  sonnyschell@hotmail.com
I tried to keep this from being lengthy but all the
parts are here.  The rhythm slashes are noted as /. 

C5 x35xxx 
A5 57xxxx
G5 35xxxx
F5 13xxxx
C  x30210  
F  133211
Am x02210             
G  3x0033          
Dm xx0231            
D5 xx57xx

INTRO 
Gtr I C5 (4 bars) A5 G5 F5
Then Gtr II plays this riff at the end:
|--------------|
|-------1-1----|
|-------2-0----|
|-------3-3----|
|--------------|
|--------------|


VERSE 
  Gtr I (slashes mean play chord above)
  C5
  ////////////////     /////////// // //
  Gtr II
|-------------------|----------------------|
|------------1------|--------x-x-1----1----|
|-------------------|--------x-x-0h2--0----|
|-------0h2---------|--------x-x-3----3----|
|-3--3--------------|----------------------|
|-------------------|----------------------|

  C5
  ////////////////    ////////////////
|------------0------|----------------------|
|-------------------|---------x-x-1--------|
|-------------------|---------x-x-0h2------|
|-------0h2---------|---------x-x-3----2---|
|-3--3--------------|----------------------|
|-------------------|----------------------|

  A5                         G5
  / // /  / /// ///// / / /  / // // / // // / // ///
|-------------0-------0----|--------------------------|
|-------------------1-1-1--|-------0h1--0-----0---0---|
|-------0h2---------2-2-2--|-------0----0-----0-0-0---|
|-------------------2---2--|-------0----0-----0-0-----|
|-0--0---------------------|--------------------------|
|--------------------------|-3--3---------------------|


  F5                  G5  F5
  /  /   /  //      / / / /  /
|-----------------|--------------|
|--1---1------x-x-|-1s3-3-1------|
|--0h2-0h2----x-x-|-2s4-4-2------|
|--3---3------x-x-|-3s5-5-3------|
|-----------------|--------------|
|-----------------|--------------|


CHORUS
    Gtr I
    Chorus Riff
||-----------------------|-----------------------|
||o-5-------5-------5----|---5-------5-----------|
||--7b9---5-7b9---5-7b9--|-5-7b9---5-7b9---7p5---|
||-----------------------|---------------------7-|
||o----------------------|-----------------------|
||-----------------------|-----------------------|
|
|   Gtr II
|   Am                     G
||-----------------------|-----------------------|
||o-------1-------1------|-------3----------3----|
||--------2-------2------|-------0----------0----|
||--------2-------2------|-------0----------0----|
||o-0----------0---------|------------------x----|
||-----------------------|-3------------0-3-3----|

                   1.
|-----------------|----------------||
|-----------------|---------------o||
|-----------------|----------------||
|-----------------|----------------||
|-------------5-7-|-8-7-5-3-2h3-2-o||
|-----------------|----------------||
|  
|  Dm               F
|----------1------|----------------||
|------3---3------|-1-------------o||
|------0h2-2------|-2--------------||
|--0---0----------|-3-2-0----------||
|-----------------|-------3-2h3-2-o||
|-----------------|----------------||

  2.
|-----------------|----------------|
|-----------------|-4b6------------|
|-----------------|----------------|
|-----------------|----------------|
|-3-3-3-3-3-3-3-3-|----------------|
|-1-1-1-1-1-1-1-1-|----------------|
|
|-----------------|----------------|
|-1-1-1-1-1-1-1-1-|-----------1-1--|
|-2-2-2-2-2-2-2-2-|-----------2-0--|
|-3-3-3-3-3-3-3-3-|-----------3-3--|
|-----------------|----------------|
|-----------------|----------------|



VERSE 2
  C5
  / // // / // /  ///////   /  //////// / / // / / /
|------------------------|---------------------------|
|------------------------|----------------1----------|
|------------------------|---------------------------|
|-------0h2--------------|------------0h2----2p0-2p0-|
|-3--3-------------------|---------------------------|
|------------------------|---------------------------|

  C5
  / // // / // /// //// /   /  //////// /    /  /// //
|----------------0-------|----------------------------|
|------------1--------1--|------------x-x-1-----------|
|------------------------|------------x-x-0h2---------|
|-------0h2--------------|------------x-x-3------2----|
|-3--3-------------------|----------------------------|
|------------------------|----------------------------|

  A5                         G5
  / // // /// /// /// /  /    /  // / /  /  // / ///////
|-----------0--------------|-----------------------------|
|---------------1----------|------x-x-0h1---0------------|
|-------2------------------|------x-x-0-----0------------|
|--------------------------|------x-x-0-----0------------|
|-0--0---------------------|-----------------------------|
|------------------------3-|-----------------------------|


  F5                      F5G5  F5
  / //  / /// ////// ///  / / / / /
|-----------0------0----|------------------|
|-----------1------1----|-1s3-3-1--1-1-1---|
|-----0h2---0-----------|-2s4-4-2--2-2-2---|
|-3---3-----------------|-3s5-5-3--3-3-3---|
|-----------------------|------------------|
|-----------------------|------------------|


CHORUS 2
Play the same parts as the first Chorus but when
you get to the 2nd ending, play this
  2.
  F
|-----------------|-----------------|
|-----------------|-----------------|
|-----------------|-----------------|
|-----------------|-----------------|
|-3-3-3-3-3-3-3-3-|-3-3-3-3-3-3-3-3-|
|-1-1-1-1-1-1-1-1-|-1-1-1-1-1-1-1-1-|
|
|-----------------|-----------------|
|-1-1-1-1-1-1-1-1-|-1-1-1-1-1-1-1-1-|
|-2-2-2-2-2-2-2-2-|-2-2-2-2-2-2-2-2-|
|-3-3-3-3-3-3-3-3-|-3-3-3-3-3-3-3-3-|
|-----------------|-----------------|
|-----------------|-----------------|


SOLO
  Gtr 1
|--------------------------|---------------------------|
|--------------------------|---------------------------|
|-7b9----------------------|-------------r-----5---7p5-|
|--------------------------|---------------------------|
|--------------------------|---------------------------|
|--------------------------|---------------------------|
|
| Gtr 2
| F                             G
|--------------------------|---------------------------|
|-1----1--1--1-----1-1-1-1-|--1s3-3-3------3-3---3-3-3-|
|-2----2--2--2-----2-2-2-2-|--2s4-4-4------4-4---4-4-4-|
|-3----3--3--3-----3-3-3-3-|--3s5-5-5------5-5---5-5-5-|
|--------------------------|---------------------------|
|--------------------------|---------------------------|

|--------------------------|-----------------|
|--------------------------|-----------------|
|-7b9------------r-----7p5-|-4---------------|
|--------------------------|-----------------|
|--------------------------|-----------------|
|--------------------------|-----------------|
| F                          Am
|--------------------------|-----------------|
|-1------1--1------1-1-1-1-|-1--1-1--1-1-1-1-|
|-2------2--2------2-2-2-2-|-2--2-2--2-2-2-2-|
|-3------3--3------3-3-3-3-|-2--2-2--2-2-2-2-|
|--------------------------|-0--0----0---0---|
|--------------------------|-----------------|


                            ~~~~~~~~~~~~~~~~~~~~~~
|-----------------------|-------------------|-------------------|
|-----------------------|-------------------|-------------------|
|-7b9-------------------|-5h7---------------|-------------------|
|-----------------------|-------------------|-------------------|
|-----------------------|-------------------|-------------------|
|-----------------------|-------------------|-------------------|
| F                         Dm
|-----------------------|-------------------|-------------------|
|-1------1--1---1-1-1-1-|---3-3-3-3-3-3-3-3-|--3--3-3-3-3-3-3-3-|
|-2------2--2---2-2-2-2-|---2-2-2-2-2-2-2-2-|--2--2-2-2-2-2-2-2-|
|-3------3--3---3-3-3-3-|---0-0-0-0-0-0-0-0-|--0--0-0-0-0-0-0-0-|
|-----------------------|-------------------|-------------------|
|-----------------------|-------------------|-------------------|

 Gtr 1
|-------------------|-------------------|
|-------------------|-------------------|
|-------------------|-7-7-7-7-7-7-7-7-7-|
|-7-7-7-7-7-7-7-7-7-|-5-5-5-5-5-5-5-5-5-|
|-0-0-0-0-0-0-0-0-0-|-------------------|
|-------------------|-------------------|


|-----------------|---------------|
|-----------------|---------------|
|-----------------|---------------|
|-7-7-7-7-7-7-----|---------------|
|-5-5-5-5-5-5-5-7-|-8-7-5-3-2h3-2-|
|-----------------|---------------|


CHORUS 3                                                                          
    Gtr I plays Chorus Riff
    Gtr II
||--------------------------------------|---------------------------------|
||o-----------1-------1---1---1----1--1-|--------3----3----3------3---3-3-|
||------------2-------2---2---2----2--2-|--------0----0----0------0---0-0-|
||--2---------2-------2---2-2-2----2--2-|-0------0----0----0--0---0---0-0-|
||o-0---------0-------------0-0---------|-x------x------------x---x-------|
||--------------------------------------|-3------3------------3---3-------|

  1.
   ~~~
|---------------------|--------------------||
|---------------------|-------------------o||
|---------------------|--------------------||
|-(7)-----------------|-(7)----------------||
|---------------------|-------------------o||
|---------------------|--------------------||
|
|------1--------1-----|--------------------||
|------3--3-3-3-3-3-3-|--1--1-1-1-1-1-1-1-o||
|--2---2--2-2-2-2-2-2-|--2--2-2-2-2-2-2-2--||
|--0---0--0-0-0-0-0-0-|--3--3-3-3-3-3-3-3--||
|---------------------|--3--3-3-3-3-3-3-3-o||
|---------------------|--------------------||

  2.
|----------------------------|---------------------------|
|----------------------------|---------------------------|
|----------------------------|---------------------------|
|-(7)------------------------|---------------------------|
|----------------------------|---------------------------|
|----------------------------|---------------------------|
|
|---------1------------1-----|---------------------------|
|---------3----3---3-3-3-3-3-|-1---1-1-1--------1--1-1-1-|
|--2------2----2---2-2-2-2-2-|-2---2-2-2--------2--2-2-2-|
|--0------0----0---0-0-0-0-0-|-3---3-3-3--------3--3-3-3-|
|----------------------------|-3---3-3-3--------3--3-3-3-|
|----------------------------|---------------------------|
|
| Gtr III
|----------------------------|---------------------------|
|----------------------------|-----8---------------------|
|--7b9-----------------------|-7b9-----7b9r(7)-----------|
|----------------------------|---------------------------|
|----------------------------|---------------------------|
|----------------------------|---------------------------|

  Gtr I plays Chorus Riff
|---------------------------------------|-----------------------------------|
|-----------1-------1---1---1-----1---1-|---------3-----3----3------3---3-3-|
|-----------2-------2---2---2-----2---2-|---------0-----0----0------0---0-0-|
|-2---------2-------2---2-2-2-----2---2-|-0-------0-----0----0--0---0---0-0-|
|-0---------0-------------0-0-----------|-x-------x-------------x---x-------|
|---------------------------------------|-3-------3-------------3---3-------|
|
|---------------------------------------|-----------------------------------|
|---------------------------------------|-----------------------------------|
|---------------------------------------|-4-------5-------------------------|
|-7-------------------------------------|-----------------------------------|
|---------------------------------------|-----------------------------------|
|---------------------------------------|-----------------------------------|


|---------1------------1-----|-----------------|
|---------3----3---3-3-3-3-3-|-1-1-1-1-1-1-1-1-|
|--2------2----2---2-2-2-2-2-|-2-2-2-2-2-2-2-2-|
|--0------0----0---0-0-0-0-0-|-3-3-3-3-3-3-3-3-|
|----------------------------|-3-3-3-3-3-3-3-3-|
|----------------------------|-----------------|
|
|----------------------------|-----------------|
|----------------------------|-----------------|
|--7b9-----------------------|-----------------|
|----------------------------|-----------------|
|----------------------------|-----------------|
|----------------------------|-----------------|


|---------------------------------------------|
|--5--------------5---------------5-----------|
|--7b9---------5--7b9-----------5-7b9---------|
|---------------------------------------------|
|---------------------------------------------|
|---------------------------------------------|
|
|---------------------------------------------|
|--------------1---------1---1----1-----1---1-|
|--------------2---------2---2----2-----2---2-|
|--2-----------2---------2---2--2-2-----2---2-|
|--0-----------0----------------0-0-----------|
|---------------------------------------------|
|
|---------------------------------------------|
|-10---------------------------10------10-----|
|-12b14---------------------------------------|
|---------------------------------------------|
|---------------------------------------------|
|---------------------------------------------|


|-----------------------------------------|
|-----5--------------5--------------------|
|-----7b9--------5---7b9---------7p5------|
|-------------------------------------7---|
|-----------------------------------------|
|-----------------------------------------|
|
|-----------------------------------------|
|------------3-------3----3------3----3-3-|
|------------0-------0----0------0----0-0-|
|--0---------0-------0----0--0---0----0-0-|
|--x---------x---------------x---x--------|
|--3---------3---------------3---3--------|
|
|-----------------------------------------|
|-12------------------------12-------12---|
|-14b16-----------------------------------|
|-----------------------------------------|
|-----------------------------------------|
|-----------------------------------------|


|----------------------------|
|----------------------------|
|----------------------------|
|----------------------------|
|-----------------------5--7-|
|----------------------------|
|
|--------1-------------------|
|--------3-----3---3--3------|
|--2-----2-----2---2--2------|
|--0-----0-----0---0--0-0--2-|
|----------------------------|
|----------------------------|
|
|----------------------------|
|-13-----------------13---13-|
|-15b17----------------------|
|----------------------------|
|----------------------------|
|----------------------------|


|----------------------------------|
|----------------------------------|
|----------------------------------|
|----------------------------------|
|-8--------7----------5--3---2h3-2-|
|----------------------------------|
|
|----------------------------------|
|-1--------------------------------|
|-2--------------------------------|
|-3--------2----------0------------|
|------------------------3---2h3-2-|
|----------------------------------|
|
|----------------------------------|
|---12-------------12--------------|
|---14b16----------14b16-----------|
|----------------------------------|
|----------------------------------|
|----------------------------------|


  Gtr I
  A5
  /
  Gtr II
|-------------------------------------|
|-------1-------------1-1-----1---1-1-|
|-------2-------------2-2-----2---2-2-|
|-2-----2-------------2-2-2---2---2-2-|
|-0-----0-----------------0---0-------|
|-------------------------------------|
|
| Gtr III
|-------------------------------------|
|---8--------------8------------------|
|---10b12----------10b12--------------|
|-------------------------------------|
|-------------------------------------|
|-------------------------------------|

  G5
  /
|--------------------------------------|
|--------3-------------3-3-----3---3-3-|
|--------0-------------0-0-----0---0-0-|
|-0------0-------------0-0-0---0---0-0-|
|-x------x-----------------x---x-------|
|-3------3-----------------3---3-------|
|
|--------------------------------------|
|---10-------------10------------------|
|---12b14----------12b14---------------|
|--------------------------------------|
|--------------------------------------|
|--------------------------------------|

  D5
  /
|------------------------------------|
|--------1-------------1-1-----------|
|--------2-------------2-2-2---------|
|-2------2-------------2-2-2---0---2-|
|-0------0-----------------0---------|
|------------------------------------|
|
|------------------------------------|
|---12-------------12----------------|
|---14b16----------14b16-------------|
|------------------------------------|
|------------------------------------|
|------------------------------------|

|-------------------------------------------|
|-------------------------------------------|
|-------------------------------------------|
|--5-----------3--2-----------0-------------|
|--------------------------------3-------2--|
|-------------------------------------------|
|
|--------------8--------------8-------------|
|-10b12----------10b12----------10b12-------|
|-------------------------------------------|
|-------------------------------------------|
|-------------------------------------------|
|-------------------------------------------|

                                  
|-------------------------------|--------------|
|-------------------------------|--------------|
|-------------------------------|--------------|
|---5---3-2--0------------------|--------------|
|---------------------3-------2-|--0-----------|
|-------------------------------|--------------|
|
|------------8------------------|--------------|
|--------------10b12------------|-10-----------|
|-------------------------------|--------------|
|-------------------------------|--------------|
|-------------------------------|--------------|
|-------------------------------|--------------|


 (slower)
|-------------|-----------10----------10-|-(10)----*|
|-------------|--------10----10----13----|---------*|
|-------------|-----10----------10-------|---------*|
|-------------|-/12----------------------|---------*|
|-------------|--------------------------|---------*|
|-------------|--------------------------|---------*|


Tablature Legend
----------------
 h   - hammer-on
 p   - pull-off
 b   - bend
 pb  - pre-bend
 r   - bend release (if no number after the r, then release immediately)
 s  - legato slide

Misc Legend
-----------
 |  - bar
||  - double bar
||o - repeat start
o|| - repeat end
*|  - double bar (ending)

Generated using Power Tab Editor by Brad Larsen http://powertab.guitarnetwork.org

Comments about this tab

sixstringes777 - 2004-12-07

what does (10) mean?


Add a comment/correction

Complimentary Christian Ringtones
Dadamobile and CGR have teamed up to bring your favorite Christian artists right to your phone. Sign up today and get 10 complementary ringtones!
Tab Country
Did you know CGR has a sister site w/ country guitar tabs? Well we do! Its called Tab Country. It has a great archive with a lot of country tabs.
Rockin Tabs
Are you looking for a site that has rock guitar tabs? Then Rockintabs.com is the place for you. It is a budding site with many rock guitar tabs. Submit your tab today.
Tab Gallery
Tab Gallery has a compilation of christian, rock, and country tabs all in one place. Come visit us.