Guitar Tabs
song title    band name

Join Us Today!

Don't strum alone...
be a part of the largest online Christian music community. Browse thousands of guitar tabs and chat w/ musicians like yourself.


It's Free!

Thousand Foot Krutch - When In Doubt

This tab has been rated a 3.63 out of 5 for accuracy. (8 votes)Sorry, but you must be logged in to rate this tab.
Click here to log-in, or you can click here to register.
(Registration is free)

All songs owned by corresponding publishing company. If you make copies of any song on this website, be sure to report your usage to CCLI.
Band: Thousand Foot Krutch
Song: When In Doubt
CD: Set It Off
~~~~~~~~~~~~~~~~~~~~~
this is pretty accurate

e------------------------------------------------------------play this
b------------------------------------------------------------a few times
g------------------------------------------------------------
D----------12--------------7-------------9-------------------
A------12------12-------7-----7-------9-----9-------5--------
E-10-10--10--10--10--5-5--5--5--5--7-7--7--7--7--3-3-3-3-3/5-

then you play 
D A B(m) G 
over and over 

e---------------------------
b---------------------------
g---------------------------
D---------------------------
A---------------------------
E-7*-5-4-5------------------ do that a few times

then go back to the 
D A B(m) G


=====================
* = let ring
B(m) = B, or Bm

=====================
if you have any question email me (jopelton_66in1@yahoo.com)
~Spidey (j pelton)

Comments about this tab

james/jr. - 2004-06-21

um that first D in the intro, its not playerd there its...

exxxxx
Bxxxxx
Gxx7xx
Dxx7xx
Axx5xx
Exx5xx


guitarplaya87 - 2004-12-27

this tab is a lot easier if you play your Bm down in the 2nd fret on the A string it sounds the same both ways but this way you arent moving up and down the board so frequently


IceHawk - 2004-12-29

Great Job! You could also play in Drop D and then bar the 12th fret instead of playing a D, and so on for all the chords.


chickwithguitar - 2005-01-21

this is a awsome song and u did a gr8 job on it. this song is fun to turn up and volume and jump aroung your room ;)try it some time!


mallad - 2005-01-25

Hey great job, but seen as this is one of the most viewed of the when in doubt tabs I thought I'd post the intro. It's a bit different than you and most others have it, but if you listen I think you'll find it's about right.

e------------------------------------------------------------------|
B----------3-------------------------------------------------------|
G------2-------2---------------2-----------4-----------------------|
D--0-0---0---0---0-----2-----2---------4-------4-------------------|
A------------------0-0---0-0-----0-2-2---2---2---2-----5-----5-----|
E--------------------------------------------------3-3---3-3---3/5-|
this is where it's repeated, but it's a little different
e----------2----------------------------------------------------|
B----------3--------------3-3-----------------------------------|
G------2------2-----------2-2-----------------------------------|
D--0-0---0------0-----2-------0------4---4-5-2------------------|
A-----------------0-0---0--------2-2---2-2-2-2-----5-----5------|
E----------------------------------------------3-3---3-3---3/5--|


ApostlePhilip - 2005-02-04

Looks good. My favorite song by the way. Just a little FYI for you people - if you want a bit of a fuller sound than just three strings, you can play each chord like this:

(D) (A) (Bm) (G)
e--5--------5------7-------3-|
b--5--------7------9-------5-|
g--7--------7------9-------5-|
D--7--------6------8-------4-|
A--7--------5------7-------7-|
E--5--------5------7-------7-|


ApostlePhilip - 2005-02-04

Looks good. My favorite song by the way. Just a little FYI for you people - if you want a bit of a fuller sound than just three strings, you can play each chord like this:

(D) (A) (Bm) (G)
e--5--------5------7-------3-|
b--5--------7------9-------5-|
g--7--------7------9-------5-|
D--7--------6------8-------4-|
A--7--------5------7-------3-|
E--5--------5------7-------3-|


gfg41 - 2005-03-28

Yeah dude I had my friends gutiar teacher look at this and the dudes been playin for thirty years and this tab is like way off


vertical_one - 2005-07-13

Hey dude that riff doesn't sound right, i think it goes like this.They play this a couple times throughout the song try it out and let me know.Either way good job tabbin bro. -Vertical

e----------------------------------------
b----------------------------------------
g----------------------------------------
d-7*-7-5-4---7*-7-5-4--7*-7-5-4--0*-0-4-5
a----------------------------------------
e----------------------------------------


vertical_one - 2005-07-14

Then there's another riff that they only play once,I think it looks like this:
e-----------------------------------
b-----------------------------------
g-----------------------------------
d-7^^------5-5-4-5---------------- (repeat
a-----------------------------------
e-----------------------------------

^^-Play that note really fast about 17 times (unless you got the FX)

Try it out and rock on!!!!
-Vertical


Dani_Boy - 2006-04-29

This tab is very incomplete, and it's very off. Sorry, but you got no strumming on the chords, no Lead Guitar, the intro that you tabbed is pretty off. Sorry that I have to be complaining, hope you don't get discouraged


flipsideoflife - 2006-08-03

ok the intro is like this
e-------------------------------------------------------------------------
b-------------------------------------------------------------------------
g-----------7-------------------------------------------------------------
d-------7-----7---7----------7-7/9---------9-----9------------------------
a---5-5---5-----5--------7-------------9-----9---------5-----5-5/7--------
E--------------------5-5---5-------7-7---7-----7---3-3---3-3--------------

ya this is my first time tabbing n this is the way i think it sounds but u where like super super close dude well ya keepin on goin n get some hello kelly tabs goin rock on


Add a comment/correction

Complimentary Christian Ringtones
Dadamobile and CGR have teamed up to bring your favorite Christian artists right to your phone. Sign up today and get 10 complementary ringtones!
Tab Country
Did you know CGR has a sister site w/ country guitar tabs? Well we do! Its called Tab Country. It has a great archive with a lot of country tabs.
Rockin Tabs
Are you looking for a site that has rock guitar tabs? Then Rockintabs.com is the place for you. It is a budding site with many rock guitar tabs. Submit your tab today.
Tab Gallery
Tab Gallery has a compilation of christian, rock, and country tabs all in one place. Come visit us.