Guitar Tabs
song title    band name

Join Us Today!

Don't strum alone...
be a part of the largest online Christian music community. Browse thousands of guitar tabs and chat w/ musicians like yourself.


It's Free!

Relient K - Trademark

This tab has been rated a 0.00 out of 5 for accuracy. (4 votes)Sorry, but you must be logged in to rate this tab.
Click here to log-in, or you can click here to register.
(Registration is free)

All songs owned by corresponding publishing company. If you make copies of any song on this website, be sure to report your usage to CCLI.
Trademark
Relient K
Solo Tab

E|-1----------------------------------1------------------------------||
B|---5--3--5--3--1-----1--3--5--3--1-----5--3--5--3--1-----1--3--5--1||
G|------------------2-----------------------------------2------------||
D|-------------------------------------------------------------------||
A|-------------------------------------------------------------------||
E|-------------------------------------------------------------------||

Comments about this tab

guitarist4God10 - 2004-11-18

actually the solo goes like this:

---------------------------------------
---------------------------------------
/7-6---4/6---6/4-4-2/7-----------------
----9/7---7/4---2----------------------
---------------------------------------
---------------------------------------

then it just repeats, and at the end of the song it ends on -----
-----
2----
2----
0----
-----


jam4him - 2005-12-17

man not to be mean but this is awful


Shaneathin86 - 2006-01-19

i think the reason the solo is off so much is because its not from trademark... its sounds like its from chapstick, chapped lips, and things like chemistry


bronxbomber - 2006-06-15

idk, but whatever it is, its bad


iced slurpee - 2007-08-26

wow... its not great.. i like guitarist4god10s correction tho.. it sounds right


Add a comment/correction

Complimentary Christian Ringtones
Dadamobile and CGR have teamed up to bring your favorite Christian artists right to your phone. Sign up today and get 10 complementary ringtones!
Tab Country
Did you know CGR has a sister site w/ country guitar tabs? Well we do! Its called Tab Country. It has a great archive with a lot of country tabs.
Rockin Tabs
Are you looking for a site that has rock guitar tabs? Then Rockintabs.com is the place for you. It is a budding site with many rock guitar tabs. Submit your tab today.
Tab Gallery
Tab Gallery has a compilation of christian, rock, and country tabs all in one place. Come visit us.