Guitar Tabs
song title    band name

Join Us Today!

Don't strum alone...
be a part of the largest online Christian music community. Browse thousands of guitar tabs and chat w/ musicians like yourself.


It's Free!

This tab has been rated a 4.38 out of 5 for accuracy. (13 votes)Sorry, but you must be logged in to rate this tab.
Click here to log-in, or you can click here to register.
(Registration is free)

All songs owned by corresponding publishing company. If you make copies of any song on this website, be sure to report your usage to CCLI.
Now That You're Near
United Live

krank up the distortion and this song rocks!!!

you can play this with two guits or just one... depending on whether you
want more grunge and a more full sound; both guits on distortion.

intro:

guitar one: strumming: just go by the rhythm of the song...easy enough
e------------------------------------------------------
B------------------------------------------------------
G--------13------14------16------14--------------------
D--------x-------x-------x-------x---------------------      (repeat)
A--------11------12------14------12--------------------
E--------0-------0-------0-------0---------------------
 
guitar 2 : not necessary just for added oomph
------------------------------------------------------
------------------------------------------------------
------------------------------------------------------
-------2--------7-------9------7---------------------- (repeat)
-------2--------7-------9------7----------------------
-------0--------5-------7------5----------------------
 
verse:
-------0----------------------0-----0-----0-----0---   c#m, Am, Bm,chord is 
-------0----------------------0-----0-----0-----0---   plucked
-------9----------------------2-----6-----2----/4---
-------9----------------------2-----6-----2----/4---
-------7--//pick scrape///----0-----4-----0----/2---     (repeat)
-------0---////////////-------0-----0-----0-----0--- 
note: for the plucking part just play with the chords
note: for the pick scrape, it depends on the distortion you use. it isn't
necessary if the distortion picks up the movement of your sliding fingers

pre-chorus:
-----x-----x-----x-----x-----x-----x-----x-----x---------
-----x-----x-----x-----x-----x-----x-----x-----x---------
-----6-----x-----9-----x-----6-----x-----9-----8---------
-----6-----7-----9-----9-----6-----7-----9-----9---------    
-----4-----7-----7-----9-----4-----7-----7-----7---------
-----x-----5-----x-----7-----x-----5-----x-----x---------

chorus:
-----0----0----0----0-----
-----0----0----0----0-----
-----9----4----6----2-----
-----9----4----6----2----- (repeat)
-----7----2----4----0-----
-----0----0----0----0-----

repeat intro 
verse
chorus

bridge:
------0----0----0----0-----0-----0-----0-------------
------0----0----0----0-----0-----0-----0-------------
------6----2----9----4-----6-----4-----2-------------
------6----2----9----4-----6-----4-----2-------------
------4----0----7----2-----4-----2-----0-------------
------0----0----0----0-----0-----0-----0-------------
 
pre-chorus
chorus
intro 
end

that's it!!! it really very easy... enjoy!!!

Comments about this tab

truffle shuffle - 2004-07-10

who ever figured this out deservs a pat on the back!!!! good job, ur my hero!!


ay1138 - 2005-06-25

Dude you did an awesome job but the Am and the Bm picking thing isn't right its a A2 and a B5 not minor

God Bless


chapstickjunkie - 2005-07-15

i believe that this is the correct way to do the intro and it seens that u were all wrong so play this way if u wanna perfect ur guitar skills


INTRO
e-----------------x------x-----x-----------------------
B-----------------9-----10----12-----------------------
G-----------------x------x-----x-----------------------
D-----------------6------7-----9----------------------- (repeat)
A-----------------x------x-----x-----------------------
E-----------------x------x-----x-----------------------


yulittle03 - 2005-11-19

does neone know how to play the electric part for the bridge?


CHRiSTculture - 2005-11-27

Chapstick, that's the same thing except moved down a string. Great tab, thanks.


davidfong22 - 2005-12-20

yeaH...BUT HAS ANYONE FIGURED OUT E RIFF 4 E GUIT IN E BRIDGE?


wowbertmz024 - 2006-07-24

THIS ROXXXXXXXXXXXXXX!!!! BIGTIME


Old_mate_josh - 2006-08-04

for the bridge, where the lead guitarist plays his/her awesome sounding thing, i believe that it is as follows, i've never tabbed anything before bare with me =P:

C# A E B C#
e|------------|------------|------------|------------|------------|
B|------------|------------|------------|------------|------------|
G|------------|---9--------|---9-11-13--|------------|------------|
D|-----14-13-9|-----7------|------------|----9-13----|---14-13-9--|
A|------------|------------|-7----------|---9--------|------------|
E|--9---------|-5----------|------------|-7----------|-9----------|

A
e|------------|
B|------------|
G|---8-9-11-14|
D|------------|
A|------------|
E|-5----------|

Thats it, it then has the acoustic on its own for a bit. I think that this is 100% correct although I can't be sure. Have fun playing it and God Bless.


Old_mate_josh - 2006-08-04

C# A E B C#
e|------------|------------|------------|------------|------------|
B|------------|------------|------------|------------|------------|
G|----9-8-----|---9--------|---9-11-13--|----9-11----|---9-8------|
D|--------9---|-----9------|------------|--9---------|--------9---|
A|------------|-0----------|-7----------|------------|------------|
E|--9---------|------------|------------|-7----------|-9----------|

A
e|------------|
B|------------|
G|---8-9-11-14|
D|------------|
A|-0----------|
E|------------|

This is the Bridge for lead guitar, it is definatly 100% correct, a little different from my 1st, but this one is the correct one. Enjoy all.


babyjiana - 2006-08-28

Now That Your Near chords by United Live
Ripped by: Jerome of SMHUMC

refrain: C#m-A-E-B
Hold me in your arms, never let me go
I wanna spent eternity with you

verse: E-B-C#m-A-B
I stand before you Lord
And give you all my praise
Your love is all I need
Jesus, you're all I need
My life belongs to you
You gave your life for me
Your grace is all I need
Jesus, your all I need

chorus: E-B-C#m-A
And now that your near
everything is diff'rent
everything so diff'rent Lord
I know I'm not the same
My life you've change
I wanna be with you
I wanna be with you

bridge: C#m-A-E-B
and I will sing for you always
C#m-B-A
cause in your precense God is where I want to stay...


friends and christians:
I hope you like it>>...tc!


Add a comment/correction

Complimentary Christian Ringtones
Dadamobile and CGR have teamed up to bring your favorite Christian artists right to your phone. Sign up today and get 10 complementary ringtones!
Tab Country
Did you know CGR has a sister site w/ country guitar tabs? Well we do! Its called Tab Country. It has a great archive with a lot of country tabs.
Rockin Tabs
Are you looking for a site that has rock guitar tabs? Then Rockintabs.com is the place for you. It is a budding site with many rock guitar tabs. Submit your tab today.
Tab Gallery
Tab Gallery has a compilation of christian, rock, and country tabs all in one place. Come visit us.