Guitar Tabs
song title    band name

Join Us Today!

Don't strum alone...
be a part of the largest online Christian music community. Browse thousands of guitar tabs and chat w/ musicians like yourself.


It's Free!

Relient K - Falling Out

This tab has been rated a 4.45 out of 5 for accuracy. (11 votes)Sorry, but you must be logged in to rate this tab.
Click here to log-in, or you can click here to register.
(Registration is free)

All songs owned by corresponding publishing company. If you make copies of any song on this website, be sure to report your usage to CCLI.
Band: Relient K
Song: Falling Out
Album: Two Lefts Donít Make a Right . . . But Three Do


Intro:
Guitar 1
E-----------------------------------------------------------------
B-----------------------------------------------------------------
G-7---7---7---7---8---8---8---8---7---7---7---7---7---7---5---5---
D---8---8---8---8---8---8---8---8---8---8---8---8---8---8---7---7-
A-----------------------------------------------------------------
E-----------------------------------------------------------------


Pre-Verse:
Guitar 2
E--------------------------------------------------
B--------------------------------------------------
G-3-5-8--------------------------------------------
D-3-5-8-5-3----------------------------------------
A-1-3-6-5-3----------------------------------------
E-------3-1----------------------------------------


Verse:
Guitar 1
E--------------------------------------------------
B--------------------------------------------------
G-3-5-8--------------------------------------------
D-3-5-8-5-3----------------------------------------
A-1-3-6-5-3----------------------------------------
E-------3-1----------------------------------------

Guitar 2
E--------------------------------------------------
B--------------------------------------------------
G-3-5-8--------------------------------------------
D-3-5-8--3-----------------------------------------
A-1-3-6--3-----------------------------------------
E--------1-----------------------------------------


Pre-Chorus:
E--------------------------------------------------
B--------------------------------------------------
G-7-7-8-3------------------------------------------
D-7-7-8-3-3----------------------------------------
A-5-5-6-1-3----------------------------------------
E---------1----------------------------------------


Pre-Verse:
Guitar 2
E--------------------------------------------------
B--------------------------------------------------
G-3-5-8--------------------------------------------
D-3-5-8-5-3----------------------------------------
A-1-3-6-5-3----------------------------------------
E-------3-1----------------------------------------


Verse:
Guitar 1
E--------------------------------------------------
B--------------------------------------------------
G-3-5-8--------------------------------------------
D-3-5-8-5-3----------------------------------------
A-1-3-6-5-3----------------------------------------
E-------3-1----------------------------------------

Guitar 2
E--------------------------------------------------
B--------------------------------------------------
G-3-5-8--------------------------------------------
D-3-5-8--3-----------------------------------------
A-1-3-6--3-----------------------------------------
E--------1-----------------------------------------


Pre-Chorus:
E--------------------------------------------------
B--------------------------------------------------
G-7-7-8-3----7-7-8-3-------------------------------
D-7-7-8-3-3--7-7-8-3-3--7-8------------------------
A-5-5-6-1-3--5-5-6-1-3-----------------------------
E---------1----------1-----------------------------


Chorus:
E--------------------------------------------------
B--------------------------------------------------
G-3-5---8------------------------------------------
D-3-5-5-8-3-3-3------------------------------------
A-1-3-5-6-3-3-3------------------------------------
E-----3---1-1-1------------------------------------


Pre-Bridge:
Guitar 1
E-----------------------------------------------------------------
B-----------------------------------------------------------------
G-7---7---7---7---8---8---8---8---7---7---7---7---7---7---5---5---
D---8---8---8---8---8---8---8---8---8---8---8---8---8---8---7---7-
A-----------------------------------------------------------------
E-----------------------------------------------------------------

Guitar 2
E---------------------------------------------------------------------
B---------------------------------------------------------------------
G-7---7---7---7---8---8---8---8---10---10---10---10---7---7---5---5---
D---8---8---8---8---8---8---8---8----8----8----8----8---8---8---7---7-
A---------------------------------------------------------------------
E---------------------------------------------------------------------

Guitar 1
E---------------------------------------------------------------
B---------------------------------------------------------------
G-7---7---7---7---8---8---8---8---7---7---7---7---7---7---------
D---8---8---8---8---8---8---8---8---8---8---8---8---8---8-3-3-3-
A---------------------------------------------------------3-3-3-
E---------------------------------------------------------1-1-1-

Guitar 2
E-------------------------------------------------------------------
B-------------------------------------------------------------------
G-7---7---7---7---8---8---8---8---10---10---10---10---7---7---------
D---8---8---8---8---8---8---8---8----8----8----8----8---8---8-3-3-3-
A-------------------------------------------------------------3-3-3-
E-------------------------------------------------------------1-1-1-


Bridge:
E--------------------------------------------------
B--------------------------------------------------
G-3-2---8---3-2------------------------------------
D-3-2-5-8-3-3-2------------------------------------
A-1-0-5-6-3-1-0------------------------------------
E-----3---1----------------------------------------
***this comes in after bass plays first three beats of the bridge***


Pre-Chorus:
E--------------------------------------------------
B--------------------------------------------------
G-7-7-8-3----7-7-8-3-------------------------------
D-7-7-8-3-3--7-7-8-3-3--7-8------------------------
A-5-5-6-1-3--5-5-6-1-3-----------------------------
E---------1----------1-----------------------------


Chorus:
E--------------------------------------------------
B--------------------------------------------------
G-3-5---8------------------------------------------
D-3-5-5-8-3-3-3------------------------------------
A-1-3-5-6-3-3-3------------------------------------
E-----3---1-1-1------------------------------------


Outro
E--------------------------------------------------
B--------------------------------------------------
G-3-5-8------3-5-8--3------------------------------
D-3-5-8-5-3--3-5-8--3------------------------------
A-1-3-6-5-3--1-3-6--1------------------------------
E-------3-1----------------------------------------

Comments about this tab

camel_rc - 2004-07-11

This tab is a right on with the song.


bballfreak6517 - 2004-07-22

i think the intro should finish -5---5---
---8---8-


guitaroo man - 2004-08-10

actually it should end E--------------------------------
B--------------------------------
G-------77777-55555--------------
D-------55555-33333--------------

i think im right.
if not then let me know ^_^ .


satori - 2005-10-29

the intro should go like this-
|7-7-7-7-7-7-7-7-8-8-8-8-8-8-8-10-10-10-10-10-10-10-10-6-6-6-6-4-4-4-4
|---------------------------------------------------------------------
|---------------------------------------------------------------------
|---------------------------------------------------------------------
|---------------------------------------------------------------------
|---------------------------------------------------------------------

us a downsroke and a up-stroke each time you flick the string-i think this sounds better
god bless


keyblade - 2006-08-08

verry good job but the last 4 notes of the intro dont sound right but i cant figure them out. and just a reminder if you listen closely on the actual song the intro is played through most of the song.


lespual rocker - 2007-02-12

NO GUYS IT`S PERFECT!!! I LISTIEN TO THIS SONG ALL THE TIME IT`S CORRECT GOOD JOB WITH THE TAB.


Add a comment/correction

Complimentary Christian Ringtones
Dadamobile and CGR have teamed up to bring your favorite Christian artists right to your phone. Sign up today and get 10 complementary ringtones!
Tab Country
Did you know CGR has a sister site w/ country guitar tabs? Well we do! Its called Tab Country. It has a great archive with a lot of country tabs.
Rockin Tabs
Are you looking for a site that has rock guitar tabs? Then Rockintabs.com is the place for you. It is a budding site with many rock guitar tabs. Submit your tab today.
Tab Gallery
Tab Gallery has a compilation of christian, rock, and country tabs all in one place. Come visit us.