Guitar Tabs
song title    band name

Join Us Today!

Don't strum alone...
be a part of the largest online Christian music community. Browse thousands of guitar tabs and chat w/ musicians like yourself.


It's Free!

Kutless - Your Touch

This tab has been rated a 4.40 out of 5 for accuracy. (5 votes)Sorry, but you must be logged in to rate this tab.
Click here to log-in, or you can click here to register.
(Registration is free)

All songs owned by corresponding publishing company. If you make copies of any song on this website, be sure to report your usage to CCLI.
Your Touch
Kutless

Well I just figured out that we've been going about this song all wrong.
I found a much easier way to play it, and it is 100% accurrate (try it
for yourself!).  Notice in the music video for this song right at the
beginning, if you looking closely, the tallest guy playing guitar is
moving his hand UP, and not DOWN.  Here's what the tab is....

Drop D
< = Slide
x = Mute


Intro
--------------------------------------------------------------------
--------------------------------------------------------------------
--------------------------------------------------------12----------
---------5--8--5------<--------8--10--8--<----------10------10------
------5-----------5---<-----8------------<------10--------------10--
---5------------------<--8---------------<--10----------------------


------------------------------------------
------------------------------------------
-----------10-----------------------------    repeat 4x (I think...)
--------8------8--------------------------
-----8------------8-----------------------
--8---------------------------------------


Distortion kicks in
--------------------------------------
--------------------------------------
-----------------------(3--2----------  x2
--1------3------5-------------3)------
--1------3------5---------------------
--1------3------5---------------------


Chorus
-------------------------------------------------------------------------
-------------------------------------------------------------------------
-------------------------------------------------------------------------
---5--5--5--5<8--8--8---3--3--3333--xx-1---------------------------------
---5--5--5--5<8--8--8---3--3--3333--xx-1---------------------------------
---5--5--5--5<8--8--8---3--3--3333--xx-1---------------------------------


Bridge
This part is very similar to the intro to the song Tonight.  It's pretty
easy, you just have to mess around with some fingerings to get it right,
so i'm not going to tab that part

Yelling Part (the one long yell).  This part goes kinda fast
---------------------------------------------------
---------------------------------------------------
---------------------------------------------------
----0--5--0--7-5-3--------------------------------- 
----0--5--0--7-5-3---------------------------------
----0--5--0--7-5-3---------------------------------
Repeat that part until the lead singer goes back to the 'I reach out...'
part, and then you go back to the chorus.  

Have fun

BRian

Comments about this tab

39lashes - 2004-05-08

the bridge is:
e[------------|-----------------------------|-----------------------|---------|
b[------------|-----------------------------|-----------------------|-3-3-3-3-|
g[------------|----do this a couple times---|-----------repeated----|-2-2-2-2-|
d[---0--------|---------4-----------------4-|---------4-------------|-4-4-4-4-|
a[---0--------|-3-------0---------3-------0-|-3-------0-0-0-0-0-0-0-|-0-0-0-0-|
d[---0--------|---5-3-5-0-----------5-3-5-0-|---5-3-5-0-0-0-0-0-0-0-|-0-0-0-0-|
let ring let ring
-------------------]
-------------------]
-----repeated------]
-0-0-3/5-0-0-5/3---]
-0-0-3/5-0-0-5/3---]
-0-0-3/5-0-0-5/3---]
thats it i didnt feel like putting the # of repeats on there but if you have half a brain you can figure it out.
peace love and mashed potatos
-charlie s.


39lashes - 2004-05-08

sorry i messed up the tab
i will try to put a fixed one on there
-charlie s.


39lashes - 2004-05-08

e[------------|-----------------------------|-----------------------|---------|
b[------------|-----------------------------|-----------------------|-3-3-3-3-|
g[------------|----do this a couple times---|-----------repeated----|-2-2-2-2-|
d[---0--------|---------4-----------------4-|---------4-------------|-4-4-4-4-|
a[---0--------|-3-------0---------3-------0-|-3-------0-0-0-0-0-0-0-|-0-0-0-0-|
d[---0--------|---5-3-5-0-----------5-3-5-0-|---5-3-5-0-0-0-0-0-0-0-|-0-0-0-0-|
let ring let ring
---------|-------------------]
-3-3-3-3-|-------------------]
-2-2-2-2-|-----repeated------]
-4-4-4-4-|-0-0-3/5-0-0-5/3---]
-0-0-0-0-|-0-0-3/5-0-0-5/3---]
-0-0-0-0-|-0-0-3/5-0-0-5/3---]that is the fixed one


39lashes - 2004-05-08

once again i screwed it up


39lashes - 2004-05-08

e[------------|-----------------------------|-----------------------|
b[------------|-----------------------------|-----------------------|
g[------------|----do this a couple times---|-----------repeated----|
d[---0--------|---------4-----------------4-|---------4-------------|
a[---0--------|-3-------0---------3-------0-|-3-------0-0-0-0-0-0-0-|
d[---0--------|---5-3-5-0-----------5-3-5-0-|---5-3-5-0-0-0-0-0-0-0-|
let ring let ring
---------|-------------------]
-3-3-3-3-|-------------------]
-2-2-2-2-|-----repeated------]
-4-4-4-4-|-0-0-3/5-0-0-5/3---]
-0-0-0-0-|-0-0-3/5-0-0-5/3---]
-0-0-0-0-|-0-0-3/5-0-0-5/3---]that is the fixed one,finnaly


I am here - 2005-06-09

During the intro you go
G--------------------------------------12----------------
D-----5-8--5---------8-10-8---------12----12-----------10
A---5--------5-----8-------------10----------10------8---
D-5------------5s8----------8s10----------------10s8-----

G-10---------
D----10------
A-------8----repeat 3 times
D---------8s5


Momorgan - 2005-08-25

luvd it lots and ur KRAZY if u can master 1 of these songs!!!! sweet job


EyeCee2007 - 2005-09-25

This is Perfect!!! i've checked all kinds of other sites and found almost all of them wrong. i'm new at tabbing stuff, i might put some thing on here. Thanks a bunch now my band can play it accurately!!! :)

Brother in Christ,
EyeCee


Add a comment/correction

Complimentary Christian Ringtones
Dadamobile and CGR have teamed up to bring your favorite Christian artists right to your phone. Sign up today and get 10 complementary ringtones!
Tab Country
Did you know CGR has a sister site w/ country guitar tabs? Well we do! Its called Tab Country. It has a great archive with a lot of country tabs.
Rockin Tabs
Are you looking for a site that has rock guitar tabs? Then Rockintabs.com is the place for you. It is a budding site with many rock guitar tabs. Submit your tab today.
Tab Gallery
Tab Gallery has a compilation of christian, rock, and country tabs all in one place. Come visit us.