Guitar Tabs
song title    band name

Join Us Today!

Don't strum alone...
be a part of the largest online Christian music community. Browse thousands of guitar tabs and chat w/ musicians like yourself.


It's Free!

Superchic[k] - Hero

This tab has been rated a 3.50 out of 5 for accuracy. (4 votes)Sorry, but you must be logged in to rate this tab.
Click here to log-in, or you can click here to register.
(Registration is free)

All songs owned by corresponding publishing company. If you make copies of any song on this website, be sure to report your usage to CCLI.
Superchick
Hero 

1-----------------------------------------
2-----------------------------------------
3-----------------------------------------
4-----------6-------6---------------------(x2)P.M.
5--4--4-4-4-4---4-4-4-4-------------------
6-----------------------------------------


1-----------------------------------------
2-----------------------------------------
3-----------------------------------------
4-----------------------------------------
5----------4------4-----------------------(x2)P.M.
6--2-2-2-2-2---2-2-2-2--------------------

1-----------------------------------------
2-----------------------------------------
3-----------------------------------------
4-----------------------------------------
5----------8------8-----------------------(x2)P.M.
6--6-6-6-6-6--6-6-6-6---------------------

1-----------------------------------------
2-----------------------------------------
3-----------------------------------------
4-----------------------------------------
5----------6------6-----------------------(x2)P.M. repeat form the top i 4get 
6--4-4-4-4-4--4-4-4-4---------------------how many times

1-----------------------------------------
2-----------------------------------------
3-----------------------------------------
4-----------------------------------------
5-----------------------------------------
6-o-o-o-o-o-o-o-o--2-2-2-2-2-2-2-2--------(this is the channelish part)

(chorus)
1-----------------------------------------
2-----------------------------------------
3-----------------------------------------
4--6-----------4--------------------------
5--4--8-----6--2--------------------------
6-----6-----4-----------------------------

this is what my guitar teach wrote down for me so i thought i'd share it
with ya'll. you might have to tweak it a little bit. God Bless!
carrie
><>

Comments about this tab

dReAmIn4EvEr - 2004-08-04

first parts right but the rest isnt, it doesnt sound anything like the intro when i play it, its too low of a sound


imsteelman - 2005-01-28

I play the chorus like this:

4-------------------7777--------------------
5--9999---5555-55---5555---7777-77----------
6--7777---3333-33----------5555-55---------- Repeat



Serenityangell - 2005-03-24

hey ummmm i my father and i were acutally playing around with the tabs and i think this intor is a little better although i like yours i think mine sounds a little closer if not sorry (thanks by the way for submitting your tabing)

1-----------------
2---------------
3---------------
4--------------
5-- 444-33--444-33--444-33---444-55--- (i guess just repeat until you feel is
6-------------- right i can't hear much after that)


Serenityangell - 2005-03-24

((sorry its not 55 at the end its 66)


Add a comment/correction

Complimentary Christian Ringtones
Dadamobile and CGR have teamed up to bring your favorite Christian artists right to your phone. Sign up today and get 10 complementary ringtones!
Tab Country
Did you know CGR has a sister site w/ country guitar tabs? Well we do! Its called Tab Country. It has a great archive with a lot of country tabs.
Rockin Tabs
Are you looking for a site that has rock guitar tabs? Then Rockintabs.com is the place for you. It is a budding site with many rock guitar tabs. Submit your tab today.
Tab Gallery
Tab Gallery has a compilation of christian, rock, and country tabs all in one place. Come visit us.