Guitar Tabs
song title    band name

Join Us Today!

Don't strum alone...
be a part of the largest online Christian music community. Browse thousands of guitar tabs and chat w/ musicians like yourself.


It's Free!

38th Parallel - Who Am I?

This tab has not yet been rated for accuracy.Sorry, but you must be logged in to rate this tab.
Click here to log-in, or you can click here to register.
(Registration is free)

All songs owned by corresponding publishing company. If you make copies of any song on this website, be sure to report your usage to CCLI.
Artist - 38th Parallel 
Song Title Ė Who Am I? 
2002 Squint Songs
Tabbed by Robert Berndt

Hey! I am pretty sure this tab is 100% correct. I donít have the patience
to tab out the whole song., but here is the main guitar riff which is
played throughout most of the song. By the way, this band is absolutely
brilliant!

Drop D Tuning (DADGBE)

|-------------------------------------------------------------|
|-------------------------------------------------------------|
|------2--2------2---2----------------------------------------|
|----2---------2---2----3---3---------0-0-----0---0-----------|
|--0---------0------------3---3----0--------0---0---3---3-----|
|--------------------------------0-------0------------5-------|

|-------------------------------------------------------------|
|-------------------------------------------------------------|
|------2--2-----2---2--0---0----------------------------------| 
|----2--------2---2------0---------0-0-----0---0--------5-----|
|--0--------0---------------------0-------0--0---------5------|
|--------------------------------0-------0------------5-------|

That is it. Once you finished it just go back to the beginning again.
There are parts where it is not played. You will have to listen to the
cd to find out where. If you have any corrections or comments please feel
free to email me at berndtfamily@mweb.co.za . Remember that Jesus loves
YOU! God Bless.

Comments about this tab

No comments/corrections found. Add your own

Complimentary Christian Ringtones
Dadamobile and CGR have teamed up to bring your favorite Christian artists right to your phone. Sign up today and get 10 complementary ringtones!
Tab Country
Did you know CGR has a sister site w/ country guitar tabs? Well we do! Its called Tab Country. It has a great archive with a lot of country tabs.
Rockin Tabs
Are you looking for a site that has rock guitar tabs? Then Rockintabs.com is the place for you. It is a budding site with many rock guitar tabs. Submit your tab today.
Tab Gallery
Tab Gallery has a compilation of christian, rock, and country tabs all in one place. Come visit us.