Guitar Tabs
song title    band name

Join Us Today!

Don't strum alone...
be a part of the largest online Christian music community. Browse thousands of guitar tabs and chat w/ musicians like yourself.


It's Free!

This tab has not yet been rated for accuracy.Sorry, but you must be logged in to rate this tab.
Click here to log-in, or you can click here to register.
(Registration is free)

All songs owned by corresponding publishing company. If you make copies of any song on this website, be sure to report your usage to CCLI.
I don't know if The Kry did more than one version of this song.  I've seen a
Chords-only sheet posted on your site and it seemed foreign to me since the
version I have on their CD (which I can't remember the name of...) has almost
no strumming at all...with the exception of the bridge.  


The version I know is on the same album as "Jason," "What About Now?" "When
You Die," etc.  So it's all fingers n no strumming.

If it's not 100% accurate (and I'm sure it isn't), I apologize.  I lost the CD
so everything I know is from memory.  It should be pretty close, anyway.
Close enough for me.  Hopefully close enough for you too :) ..granted I write
the tabs properly and that you can read/time it properly...

You've GOT to be listening to the song in order to understand this.

Please have it handy to not waste your time... :)

CAPO 2nd Fret
Tabs are relative to CAPO
S = Slide
P = Pulloff
H = Hammer
X = Silence
...I hope your little finger can stretch.

General finger positions for this song: Of course you won't be strumming
these, but they should give you a general idea of which fingers should be
hitting what.
In order of appearance...Match with the numbers above the tabs

EADGBE
005435 - (1)
044654 - (2)
055775 - (3)
002220 - (4)
024432 - (5)
320400 - (6)
007670 - (7)



INTRO:
     (1)        (2)    (3)
E--------5---------------------------
B------3---------5-5h8x--7-----------
G----4-----------6-6--x--7--------2--
D--5---------------------------2h4---
A----------------4----x-5------------
E------------------------------------

   (1)          (2)    (3)
E--------5----------------------------2
B------3-3-------5-5h8x--7-----------3-
G----4-----------6-6--x--7--------2h4--
D--5---------------------------2h4-----
A----------------4----x-5--------------
E--------------------------------------

   (1)          (4)   (5)           (5)        (4)
E---------5--------------------------2-2--3--------0---
B------3--3------2--x--3--3---3------3-3--3-----2s3--3-
G-----4----------2-2x--4--2h4-2----------------------2-
D--5-5-----------------4-------------5-4--2----------0-
A----------------0--x--2------------------------0------
E------------------------------------------------------



Verse 1:
   (6)    (7)   (5)            (1)
E-------------------------------------5--------------------------
B----------7-7---3------2-------------3----------3---------2-----
G--4-------6-6---4--4---4-----------4---4------2---2-----4-4-----
D--0-0------7------4-4----------3s5--------2s4---------2---------
A---2-2----0-----2------0----------------------------0-----------
E--3-------------------------------------------------------------


 (6)           (5)            (1)     (5)            (1)
E----------------------------------5-x----------------------5----
B----------7----3---2h3p2-2--------3-x-3---3--3--2----------3----
G-4-----2s6-6---4---4-----4------4---x-4---2h-2--4------4-x------
D-0-0--------7----4------------5-----x---4------------5---x------
A--2-2--0-------2---2-----0------------2---------0---------------
E-3--------------------------------------------------------------


CHORUS: (Now this I know is wrong.  But close enough for me. :)
             (2)     (3)                (2)     (3)
E-5s7---5-----------------------5s7---5--------------------2-5s7---5---------
B-------------5-5h8-x-7------------------5-5h8-x-7--------3------------------
G-----7-------6-6---x-7-----2------------6-6---x-7-----2h4-------7-----------
D-0----------------------2h4----0---7---------------2h4------0---------------
A-------------4-----x-5------------------4-----x-5---------------------------
E----------------------------------------------------------------------------

 (4)  (5)         (5)     (4) 
E------------------2-2-3------0----------------------------------
B-2--x-3-3---3-----3-3-3---2s3--3--------------------------------
G-2--x-4-2h4-2------------------2--------------------------------
D--2-x-------------5-4-2--------0--------------------------------
A-0--x-2-------------------0-------------------------------------
E----------------------------------------------------------------


And that's all the time we have.  If you really must have the Bridge (which
are just obvious chords strummed down once) or the guitar solos (and the
first one is just variations on the chorus tabs), you can e-mail me at
sfhkid8@cs.com.  I'll try to tab it up.

Comments about this tab

No comments/corrections found. Add your own

Complimentary Christian Ringtones
Dadamobile and CGR have teamed up to bring your favorite Christian artists right to your phone. Sign up today and get 10 complementary ringtones!
Tab Country
Did you know CGR has a sister site w/ country guitar tabs? Well we do! Its called Tab Country. It has a great archive with a lot of country tabs.
Rockin Tabs
Are you looking for a site that has rock guitar tabs? Then Rockintabs.com is the place for you. It is a budding site with many rock guitar tabs. Submit your tab today.
Tab Gallery
Tab Gallery has a compilation of christian, rock, and country tabs all in one place. Come visit us.