Guitar Tabs
song title    band name

Join Us Today!

Don't strum alone...
be a part of the largest online Christian music community. Browse thousands of guitar tabs and chat w/ musicians like yourself.


It's Free!

Chevelle - Red, The

This tab has been rated a 3.00 out of 5 for accuracy. (1 vote)Sorry, but you must be logged in to rate this tab.
Click here to log-in, or you can click here to register.
(Registration is free)

All songs owned by corresponding publishing company. If you make copies of any song on this website, be sure to report your usage to CCLI.

Artist: Chevelle
Song: The Red
Copyright: 2002
Transcribed by: Nathaniel White sonewave25@hotmail.com (Law_to_Liberty)
Key: C#m/E
Beat: 3/6 or 6/12, I guess



Note:I'm pretty sure that there are two guitars and one is just doing the 
chords the whole time (except for the "solo" part) and the other is doing the 
tab.


This part is done through the whole song (except the chorus) and palm muted 
when he is singing. Chord-wise you're just playing: C#m E C#m A
   C#m        E          C#m        A
e|---------------------------------------------
B|---------------------------------------------
G|-----------------------6--6-6-6-6------------
D|-6--6-6-6-6------------4--4-6-4-6------------
A|-4--4-6-4-0-2--2-2-2-2------------7--7-7-7-7-
E|------------0--2-0-2-0------------5--5-4-5-4-


Intro:
   C#m        E          C#m        A
e|---------------------------------------------
B|---------------------------------------------
G|-----------------------6--6-6-6-6------------
D|-6--6-6-6-6------------4--4-6-4-6------------
A|-4--4-6-4-0-2--2-2-2-2------------7--7-7-7-7-
E|------------0--2-0-2-0------------5--5-4-5-4-

   C#m        E          C#m        A
e|---------------------------------------------
B|---------------------------------------------
G|-----------------------6--6-6-6-6------------
D|-6--6-6-6-6------------4--4-6-4-6------------
A|-4--4-6-4-0-2--2-2-2-2------------7--7-7-7-7-
E|------------0--2-0-2-0------------5--5-4-5-4-


Verse: Palm Mute
   C#m        E          C#m        A
e|---------------------------------------------
B|---------------------------------------------
G|-----------------------6--6-6-6-6------------
D|-6--6-6-6-6------------4--4-6-4-6------------
A|-4--4-6-4-0-2--2-2-2-2------------7--7-7-7-7-
E|------------0--2-0-2-0------------5--5-4-5-4-

   C#m        E          C#m        A
e|----------------------------------------------
B|----------------------------------------------
G|-----------------------6--6-6-6-6-------------
D|-6--6-6-6-6------------4--4-6-4-6----------7*-
A|-4--4-6-4-0-2--2-2-2-2------------7--7-7-7-7*-
E|------------0--2-0-2-0------------5--5-4-5-4*- *Don't Palm Mute


Chorus: Don't Palm Mute

C#m  E  B - C#m  E  B  F# /s G#


Bridge: 

   C#m        E          C#m        A
e|---------------------------------------------
B|---------------------------------------------
G|-----------------------6--6-6-6-6------------
D|-6--6-6-6-6------------4--4-6-4-6------------
A|-4--4-6-4-0-2--2-2-2-2------------7--7-7-7-7-
E|------------0--2-0-2-0------------5--5-4-5-4-


Verse
Chorus


Bridge 2:

Guitar one:
   C#m        E          C#m        A
e|---------------------------------------------
B|---------------------------------------------
G|-----------------------6--6-6-6-6------------
D|-6--6-6-6-6------------4--4-6-4-6------------
A|-4--4-6-4-0-2--2-2-2-2------------7--7-7-7-7-
E|------------0--2-0-2-0------------5--5-4-5-4-

   C#m        E          C#m        A
e|---------------------------------------------
B|---------------------------------------------
G|-----------------------6--6-6-6-6------------
D|-6--6-6-6-6------------4--4-6-4-6------------
A|-4--4-6-4-0-2--2-2-2-2------------7--7-7-7-7-
E|------------0--2-0-2-0------------5--5-4-5-4-

   C#m        E          C#m        A
e|---------------------------------------------
B|---------------------------------------------
G|-----------------------6--6-6-6-6------------
D|-6--6-6-6-6------------4--4-6-4-6------------
A|-4--4-6-4-0-2--2-2-2-2------------7--7-7-7-7-
E|------------0--2-0-2-0------------5--5-4-5-4-

   C#m        E          C#m        A
e|----------------------------------------------
B|----------------------------------------------
G|-----------------------6--6-6-6-6-------------
D|-6--6-6-6-6------------4--4-6-4-6-----------*-
A|-4--4-6-4-0-2--2-2-2-2------------7--7-7-7-7*-
E|------------0--2-0-2-0------------5--5-4-5-4*- *Don't Palm Mute


Guitar two: Face your guitar towards your amp for feedback after the chorus and 
before the next chorus.

Listen album for the amount of time's you do this.
e|----------------------------------------------
B|----------------------------------------------
G|----------------------------------------------
D|-6--6-6-6-6-6---------------------------------
A|---------------2-2-2-2-4--4-4-4-4-------------
E|----------------------------------------------


Chorus

Bridge: 

   C#m        E          C#m        A
e|---------------------------------------------
B|---------------------------------------------
G|-----------------------6--6-6-6-6------------
D|-6--6-6-6-6------------4--4-6-4-6------------
A|-4--4-6-4-0-2--2-2-2-2------------7--7-7-7-7-
E|------------0--2-0-2-0------------5--5-4-5-4-

   C#m        E          C#m        A
e|---------------------------------------------
B|---------------------------------------------
G|-----------------------6--6-6-6-6------------
D|-6--6-6-6-6------------4--4-6-4-6------------
A|-4--4-6-4-0-2--2-2-2-2------------7--7-7-7-7-
E|------------0--2-0-2-0------------5--5-4-5-4-

   C#m        E          C#m        A
e|---------------------------------------------
B|---------------------------------------------
G|-----------------------6--6-6-6-6------------
D|-6--6-6-6-6------------4--4-6-4-6------------
A|-4--4-6-4-0-2--2-2-2-2------------7--7-7-7-7-
E|------------0--2-0-2-0------------5--5-4-5-4-

   C#m        E          C#m        A
e|----------------------------------------------
B|----------------------------------------------
G|-----------------------6--6-6-6-6-------------
D|-6--6-6-6-6------------4--4-6-4-6-7-7-7-7-7-7-
A|-4--4-6-4-0-2--2-2-2-2------------7-7-7-7-7-7-
E|------------0--2-0-2-0------------5-5-5-5-5-5-

e|-------------------------------------------------
B|-------------------------------------------------
G|-------------------------------------------------
D|-7-7-|-|-|-|-7-7-|-|-|-|-6-6-|-|-|-|-6-6-|-|-|-|*
A|-7-7-|-|-|-|-7-7-|-|-|-|-6-6-|-|-|-|-6-6-|-|-|-|-
E|-5-5-|-|-|-|-5-5-|-|-|-|-4-4-|-|-|-|-4-4-|-|-|-|- *|:strum without holding the chord


End with the first verse.

Comments about this tab

deerboy - 2005-06-17

Are you sure this isn't in Drop D?


chevelleman - 2005-09-23

Pete is the guitar player in chevelle. Smart one


G(CA) - 2006-03-31

What the heck does '3/6' or '6/12' beat mean?


Add a comment/correction

Complimentary Christian Ringtones
Dadamobile and CGR have teamed up to bring your favorite Christian artists right to your phone. Sign up today and get 10 complementary ringtones!
Tab Country
Did you know CGR has a sister site w/ country guitar tabs? Well we do! Its called Tab Country. It has a great archive with a lot of country tabs.
Rockin Tabs
Are you looking for a site that has rock guitar tabs? Then Rockintabs.com is the place for you. It is a budding site with many rock guitar tabs. Submit your tab today.
Tab Gallery
Tab Gallery has a compilation of christian, rock, and country tabs all in one place. Come visit us.