Guitar Tabs
song title    band name

Join Us Today!

Don't strum alone...
be a part of the largest online Christian music community. Browse thousands of guitar tabs and chat w/ musicians like yourself.


It's Free!

Lifehouse - Sky Is Falling

This tab has not yet been rated for accuracy.Sorry, but you must be logged in to rate this tab.
Click here to log-in, or you can click here to register.
(Registration is free)

All songs owned by corresponding publishing company. If you make copies of any song on this website, be sure to report your usage to CCLI.
Song:3:Sky is Falling
Artist:Lifehouse
Album:Stanley Climbfall
Key:D#
Copyright (C) 2002 Dreamworks Music
Capo: 1st
Tab relative to capo

Intro/Verse:
e|------------------------------------------------
B|------------------------------------------------
G|------------------------------------------------
D|-2-4-4-4--2-4-4-4--2-4-4-4--2-0-0-2-0-0-2-0-2-0-
A|-5-5-5-5--3-3-3-3--2-2-2-2--2-2-2-2-2-2-2-2-2-2-
E|----------------------------3-3-3-3-3-3-3-3-3-3-

e|------------------------------------------------
B|------------------------------------------------
G|------------------------------------------------
D|-2-4-4-4--2-4-4-4--2-4-4-4--2-0-0-2-0-0-2-0-2-0-
A|-5-5-5-5--3-3-3-3--2-2-2-2--2-2-2-2-2-2-2-2-2-2-
E|----------------------------3-3-3-3-3-3-3-3-3-3-

Chorus: G D Am G C G A D - G D Am G C G A D

Verse:
e|------------------------------------------------
B|------------------------------------------------
G|------------------------------------------------
D|-2-4-4-4--2-4-4-4--2-4-4-4--2-0-0-2-0-0-2-0-2-0-
A|-5-5-5-5--3-3-3-3--2-2-2-2--2-2-2-2-2-2-2-2-2-2-
E|----------------------------3-3-3-3-3-3-3-3-3-3-

e|------------------------------------------------
B|------------------------------------------------
G|------------------------------------------------
D|-2-4-4-4--2-4-4-4--2-4-4-4--2-0-0-2-0-0-2-0-2-0-
A|-5-5-5-5--3-3-3-3--2-2-2-2--2-2-2-2-2-2-2-2-2-2-
E|----------------------------3-3-3-3-3-3-3-3-3-3-

Chorus: G D Am G C G A D - G D Am G C G A D

Bridge: Am C D E Am C D E - Am E C G A D
Solo-                       ^Play solo here
e|----------------------------------------------------------
B|-----1-1-1--1-1-0----------------3/5-5--5-5-3-1--0--------
G|-0h2--------------2--0------------------------------0--0--
D|------------------------2--2-0h2--------------------------
A|----------------------------------------------------------
E|----------------------------------------------------------

e|------------------5-5-3-3---------------------------------
B|-2h3-2h3-2h3-3/5------------------------------------------
G|----------------------------------------------------------
D|----------------------------------------------------------
A|----------------------------------------------------------
E|----------------------------------------------------------

e|----------------------------------------------------------
B|-----1-1-1--1-1-0----------------3/5-5--5-5-3-1--0--------
G|-0h2--------------2--0------------------------------0--0--
D|------------------------2--2-0h2--------------------------
A|----------------------------------------------------------
E|----------------------------------------------------------

e|-------------------------3h5/7----------------------------
B|-2h3-2h3-2-0--------3-/5----------------------------------
G|--------------0--2----------------------------------------
D|----------------------------------------------------------
A|----------------------------------------------------------
E|----------------------------------------------------------

Chorus: G D Am G C G A D - G D Am G C G A D
Outro: C G A D C G A D

Comments about this tab

No comments/corrections found. Add your own

Complimentary Christian Ringtones
Dadamobile and CGR have teamed up to bring your favorite Christian artists right to your phone. Sign up today and get 10 complementary ringtones!
Tab Country
Did you know CGR has a sister site w/ country guitar tabs? Well we do! Its called Tab Country. It has a great archive with a lot of country tabs.
Rockin Tabs
Are you looking for a site that has rock guitar tabs? Then Rockintabs.com is the place for you. It is a budding site with many rock guitar tabs. Submit your tab today.
Tab Gallery
Tab Gallery has a compilation of christian, rock, and country tabs all in one place. Come visit us.