Guitar Tabs
song title    band name

Join Us Today!

Don't strum alone...
be a part of the largest online Christian music community. Browse thousands of guitar tabs and chat w/ musicians like yourself.


It's Free!

Relient K - Forward Motion

This tab has been rated a 4.75 out of 5 for accuracy. (8 votes)Sorry, but you must be logged in to rate this tab.
Click here to log-in, or you can click here to register.
(Registration is free)

All songs owned by corresponding publishing company. If you make copies of any song on this website, be sure to report your usage to CCLI.
Song: Forward Motion
Artist: Relient K
Album: Two Lefts Don't Make A Right, But Three Do
2003 gotee music

Intro (I don't think it's perfect, but pretty darn close) Guitar 1:
e----------------------------------------------------
B----------------------------------------------------
G--6-8-6-8-6--6-5-6-5-6--8-10-8-10-8--10-13-10-11-10-
D----------------------------------------------------    x3
A----------------------------------------------------
E----------------------------------------------------

Guitar 2 (come in at start of 2x):

A#m, G#, D#m x2

Then F#

Verse:

C#, G#, A#m, F# x2

Pre Chorus:

C#, G#, A#m, F#   Then, do it again only palm muted.

A#m, G#, D#m x2

Chorus:

C#, G#, F# x2

C#, G#, A#m, F# x4

Then F#, F, F#, F

Verse

Pre Chorus

Chorus (Do the second part a bunch this time)

Later,

   ~Ken~

Any Questions? Email me at: ha_thats_mildly_amusing@hotmail.com

Comments about this tab

Brian-Alexander - 2004-04-13

this is a great song and rk rocks!


Handsome - 2004-06-22

Hey, this is Ken... I looked this over and I think everything is right, but the intro tab isn't entirely correct, so to see it better look at the tab one by that Mad Robotic Hippo guy. See you later.


13rocks - 2004-11-20

Whats palm muted?


mmggppmgp - 2005-01-08

palm mute is when u put ur right palm sumwhere around the bridge prefereble on top of it like to mute it while playin makin some kinda chunky sound... make sure ur palm doesnt move or else like it wouldnt sound right... it took me like months to perfect


Down In Flames - 2005-11-15

or your left hand if your lefthanded and awesome like me


Twigguitar_1992 - 2006-04-02

it's all good except the intro. it might go better like this.
----------------------------------------------------
----------------------------------------------------
----68686----65656-66-8-10-8-10-8-88-10-13-10-11-10-
-88-------88----------------------------------------
----------------------------------------------------
----------------------------------------------------


guitarguy101 - 2006-04-17

this is the correct tab for the intro. after looking at some of the other posts I just sat down and figured out how its supposed to go
I love this song. And rock on RK!

----------------------------------------------------------
-----------------------------------------------------------
----68686----76767--66--8-10-8-10-8---10-13-10-11-10
-88-------66----------------------------------------------
----------------------------------------------------------
----------------------------------------------------------


Add a comment/correction

Complimentary Christian Ringtones
Dadamobile and CGR have teamed up to bring your favorite Christian artists right to your phone. Sign up today and get 10 complementary ringtones!
Tab Country
Did you know CGR has a sister site w/ country guitar tabs? Well we do! Its called Tab Country. It has a great archive with a lot of country tabs.
Rockin Tabs
Are you looking for a site that has rock guitar tabs? Then Rockintabs.com is the place for you. It is a budding site with many rock guitar tabs. Submit your tab today.
Tab Gallery
Tab Gallery has a compilation of christian, rock, and country tabs all in one place. Come visit us.