Guitar Tabs
song title    band name

Join Us Today!

Don't strum alone...
be a part of the largest online Christian music community. Browse thousands of guitar tabs and chat w/ musicians like yourself.


It's Free!

Chapman, Steven Curtis - Jesus Is Life

This tab has been rated a 3.00 out of 5 for accuracy. (2 votes)Sorry, but you must be logged in to rate this tab.
Click here to log-in, or you can click here to register.
(Registration is free)

All songs owned by corresponding publishing company. If you make copies of any song on this website, be sure to report your usage to CCLI.
SCC
Jesus is Life             1st     2nd
Intro/verse            ending   ending
e-------------------[---------]  [---]
b-------------------[---------]  [---]for intro play 4 time, on the last time
g-------------------[-6-6-7-6-]  [---]play 2nd ending
d--------9----------[-----7-7-]  [-7-]
a--------7--------7-[-----0-0-]  [-0-]
e--0-0-9---0-9-0-9--[---------]  [---]

In-between verse stuff
e----0---0---                     e--------------0-0-
b----0---0---                     b--------------2-2-
g------------                     g------------9-3-2-
d------------                     d--------9-7-9-2-0-
a------------                     a--------7-0-7-----
e--4---3---2-                     e--0-0-9-----------

Chorus
e----------------------------------             e------------------
b----------------------------------             b------------------
g----------------------------------Play 3 times g------------------
d--6-6-6-2-2-2-2-2-4-4-4-----------then this    d------------------
a--4-4-4-0-0-0-0-0-2-2-2-6-6-6-6-6-             a--5-5-5-4-4-4-3-3-
e------------------------4-4-4-4-4-             e--3-3-3-2-2-2-1-1-

Bridge
e---------------------------------------------0------------
b----3------3/2---2-----2p1---1-----1---------3------------play 4 times
g------0------------0-----------0-----0-----0--------------
d-----------------------------------------4----------------
a---------------0-----0-----3-----3-----5------------------
e--3-----3-------------------------------------------------

palm mute chorus without ending

end with intro
                              /=slide  p=pull off
Hope you like it.

Comments about this tab

gsus_freak7 - 2005-04-12

its hard to understand.


shadow111231 - 2007-05-23

It's REALY good! It sounds a TAD wierd at the 64 64 64 02 02 02 02 02 42 42 42 42 64 64 64 64, but it might be me.


Add a comment/correction

Complimentary Christian Ringtones
Dadamobile and CGR have teamed up to bring your favorite Christian artists right to your phone. Sign up today and get 10 complementary ringtones!
Tab Country
Did you know CGR has a sister site w/ country guitar tabs? Well we do! Its called Tab Country. It has a great archive with a lot of country tabs.
Rockin Tabs
Are you looking for a site that has rock guitar tabs? Then Rockintabs.com is the place for you. It is a budding site with many rock guitar tabs. Submit your tab today.
Tab Gallery
Tab Gallery has a compilation of christian, rock, and country tabs all in one place. Come visit us.