Guitar Tabs
song title    band name

Join Us Today!

Don't strum alone...
be a part of the largest online Christian music community. Browse thousands of guitar tabs and chat w/ musicians like yourself.


It's Free!

Relient K - Getting Into You

This tab has been rated a 2.43 out of 5 for accuracy. (7 votes)Sorry, but you must be logged in to rate this tab.
Click here to log-in, or you can click here to register.
(Registration is free)

All songs owned by corresponding publishing company. If you make copies of any song on this website, be sure to report your usage to CCLI.
Artist : Relient K
Song: Getting Into You
Album: Two Lefts Don't Make A Right...But Three Do

scribe: Joel Kellner

INTRO:

E---------------------------------------
B-------0---------0----------0--------
G---------1---------1-----------1-----
D----2---------2----------2-----------
A----------------------0----------------
E-0---------2---------------------2---

VERSES:
E----------------------------------------------
B--------0---------0----------0--------2----
G----------1---------1-----------1--------2-1
D----2---------2----------2-----------------
A------------------------0--------------------
E-0----------2---------------------2---------

Chorus

E 022100
E 079800
A X77600
A 577600


VERSE 2 (the same)
E------------------------------------------
B-------0---------0----------0--------2----
G---------1---------1-----------1--------2-1
D----2---------2----------2-----------------
A----------------------0--------------------
E-0---------2---------------------2---------

Bridge

E--------------------------------------------
B--------------------------------------------
G-------9---------8----------6---------------
D---------9---------9----------7--------9----
A---11---------9---------7----------7-----11-
E-9----------7---------5----------0----------

Comments about this tab

Luke Henslee - 2004-02-17

Chorus:
E B F#m A
E B C#m A


skillethead - 2005-01-18

Hey! Pretty good...but the chorus goes...
E
e0
B0
G1
D2
A2
E0

Emaj7(no3rd)
e0
B0
G8
D9
A7
E0

F#m11
e0
BO
G6
D7
A9
Ex

Asus2
e0
B0
G2
D2
A0
Ex

So yeah! there ya go! Be a skatea...c ya latea


neonboy - 2006-02-14

i thinnk the chorus goes like this:

E:079900
Emaj7:069800
Cm7{not sure it's called the Cm7 but that's how it goes}:046600
A2:002200

and that's how i play it, to me it's correct
well that's all folks....lol God bless.


Add a comment/correction

Complimentary Christian Ringtones
Dadamobile and CGR have teamed up to bring your favorite Christian artists right to your phone. Sign up today and get 10 complementary ringtones!
Tab Country
Did you know CGR has a sister site w/ country guitar tabs? Well we do! Its called Tab Country. It has a great archive with a lot of country tabs.
Rockin Tabs
Are you looking for a site that has rock guitar tabs? Then Rockintabs.com is the place for you. It is a budding site with many rock guitar tabs. Submit your tab today.
Tab Gallery
Tab Gallery has a compilation of christian, rock, and country tabs all in one place. Come visit us.