Guitar Tabs
song title    band name

Join Us Today!

Don't strum alone...
be a part of the largest online Christian music community. Browse thousands of guitar tabs and chat w/ musicians like yourself.


It's Free!

Knapp, Jennifer - Peace

This tab has been rated a 5.00 out of 5 for accuracy. (1 vote)Sorry, but you must be logged in to rate this tab.
Click here to log-in, or you can click here to register.
(Registration is free)

All songs owned by corresponding publishing company. If you make copies of any song on this website, be sure to report your usage to CCLI.
Title: Peace
By: Jennifer Knapp Copyright 1999 (http://www.jenniferknapp.com)

Tuning: DADgad
        v   vv

Capo 4, tab relative to the Capo.



First Intro:
(free flowing)
d: ---------------------------0=----
a: ---------------------------------
g: -------7ss2==--2p0---------0=----
D: -0------------------4h5----------
A: -<12>-------------------0--------
D: ---0-----------------------------



d: --------------------------------------------------2====
a: ------------4t5t4-2h4-0---------------------------0====
g: ------------------------------------------------2------
D: -------------------------7=sss4-4t5t4p0-2===--2--------
A: 2p0-----------------------------------------0----------
D: ----0====---------------------------------0------------



d: ------0-2-4-4b5b4=s2p0---------------------0-----------
a: ----------------------4t5t4t0------------0--------7====
g: ---------------------------------------------0---------
D: --------------------------------7=sss4-4-------4s5-----
A: 2p0----------------------------------------------------
D: ----0====----------------------------------------------



d: ----------0--------------------------- ---------0--------
a: --------0---------7=------9=------10== -10ss5p0----------
g: ------------0-------0-------0--------- ------------0=====
D: ----2s4-------4s5=----5s7=----7s9----- -----0------------
A: 0------------------------------------- ------------------
D: --0-----------0=======0=======0======= -0=====-----------


(start regular rhythm)
d: --------0-----0---0==-----------
a: ------0-------------------------
g: ----------0-------0==-----------
D: ------------0---4p0-------------
A: 0h2-------------------------0h2-
D: ----0---------------------------
   .       .       .       .       .


d: ----0-----0---0=====----------------0-----0---0=========--------
a: --0-------------------------------0-----------------------------
g: ------0-------0=====------------------0-------0=========--------
D: --------0---4p0-----4s2===0===----------0ó--4p0-----------------
A: ------------------------------0---------------------------------
D: 0=------------------------------0=------------------------------
   .       .       .       .       .       .       .       .       .


Verse 1 Riff:
d: ----0-------0-----0---------0-------0-------0-------2h4p2====0--
a: --0-------------------------------0---------------0==========---
g: ------0=------0-----0-----0---0-------0=------0---------------0-
D: 0---------0-----4-----0h2-------0---------0-----0---------------
A: ----------------------------------------------------------------
D: ----------------------------------------------------------------
   .       .       .       .       .       .       .       .       .


d: ----0-------0-----0---------0-------0-------0-----0---------0---
a: --0-------------------------------0-----------------------------
g: ------0=------0-----0-----0---0-------0=------0-----0-----0---0-
D: 0---------0-----4-----0h2-------0---------0-----4-----0h2-------
A: ----------------------------------------------------------------
D: ----------------------------------------------------------------
   .       .       .       .       .       .       .       .       .

                                                              
d: --0-----0---2====p0-----0-----0-----0-------0-------0---------0- 
a: ----------------------------------0---------------0-------------
g: ----2-----2---------2-----2-----------0=------0-------0=--------
D: ------2---------------2-----2p0-0---------0-----0---------0-----
A: 0---------------0-------------------------------------------0---
D: ----------------------------------------------------------------
   .       .       .       .       .       .       .       .       .
			

Chorus 1 Riff:                                           ^
d: --0-----0---2p0---0-----0-----0---0-----0-----0-----0-----------
a: ----------------------------------------------------------------
g: ----0-----0---------0-----0---------0-----0-----------0===------
D: ------2---------------2-----2p0-------0-----------0-------0-----
A: 0---------------0---------------2-----------2p0-------------0---
D: ------------------------------------------------0=------------0-
   .       .       .       .       .       .       .       .       .

                                                       ^         
d: --0-----0---------0-----0-----------------0---0---0=============
a: ----------------------------------------------------------------
g: ----0-----0---0-----0-----0---0-----------2---2---2-0=========h2
D: ------0---------------0-----------------------------------------
A: ----------------------------------------------------------------
D: 5-----------5---4-----------4--s2==-------2---2---2===========p0
   .       .       .       .       .       .       .       .       .


Verse 2 Intro Riff:
d: ----0-------0-----0-----0-----------0-------0-----0-----0-------
a: --0-------------------------------0-----------------------------
g: ==----0=--------0-------0-------------0=--------0-------0-------
D: ----------0---4p0---0h2-----0---0=--------0---4p0---0h2-----0---
A: ------------------------------0-------------------------------0-
D: 0=--------------------------------------------------------------
   .       .       .       .       .       .       .       .       .

Verse 2 Riff:
d: ----0-------0-----0---------0-------0-------0-------2h4p2====0--
a: --0-------------------------------0---------------0==========---
g: ------0=------0-----0-----0---0-------0=------0---------------0-
D: ----------0-----4-----0h2-------0---------0-----0---------------
A: ----------------------------------------------------------------
D: 0=--------------------------------------------------------------
   .       .       .       .       .       .       .       .       .


d: ----0-------0-----0---------0-------0-------0-----0---------0---
a: --0-------------------------------0-----------------------------
g: ------0=------0-----0-----0-----------0=------0-----0-----0---0-
D: 0---------0-----4-----0h2-----------------0-----4-----0h2-------
A: ------------------------------0---------------------------------
D: --------------------------------0=------------------------------
   .       .       .       .       .       .       .       .       .

                                                                
d: --0-----0---2p0---0-----0-----0-----0-------0-------0----------- 
a: ----------------------------------0---------------0-------------
g: ----2-----2---------2-----2-----------0=------0-------0=--------
D: ------2---------------2-----2p0-----------0---------------0-----
A: 0---------------0-------------------------------------------0---
D: --------------------------------0=--------------0=------------0-
   .       .       .       .       .       .       .       .       .
			


Chorus 2 Riff:
d: --0-----0---2p0---0-----0-----0---0-----0-----0-----0-----------
a: ----------------------------------------------------------------
g: ----0-----0---------0-----0---------0-----0-----------0=--------
D: ------2---------------2-----2p0-------0-----------0-------0-----
A: 0---------------0---------------2-----------2p0-------------0---
D: ------------------------------------------------0=------------0-
   .       .       .       .       .       .       .       .       .


d: --0-----0---------0-----0-----------------0---0---0=============
a: ----------------------------------------------------------------
g: ----0-----0---0-----0-----0---0-----------2---2---2-0===========
D: ------0---------------0-----------------------------------------
A: ----------------------------------------------------------------
D: 5-----------5---4-----------4--s2==-------2---2---2===========p0
   .       .       .       .       .       .       .       .       .


Bridge Riff:
d: --------------0=------------0---------------------0-------0-----
a: ----------------------------------------------------------------
g: --7sss2---------------------0-----7sss2-----------0-------0---h2
D: ----------4s5-----5s4-------------------5s4-2---------------0---
A: ----------------------0---0-------------------0-0-----0-------0-
D: 0-----------------------0-------0-------------------------------
   .       .       .       .       .       .       .       .       .

                          
d: ----0-------------------------------0---------0=-----0=-----0---
a: --0-------------------------------0-----------------------------     
g: ===---0=------------------------------0---0---0=--------------0-
D: ---------------------------------------(0)ó-4p0----4s2=---0-----
A: ----------------------------0h2---------------------------------
D: 0-------------------------------0-------------------------------
   .       .       .       .       .       .       .       .       .


Chorus 3 Riff:                                           ^
d: --0-----0---2p0---0-----0-----0---0-----0-----0-----0-----------
a: ----------------------------------------------------------------
g: ----0-----0---------0-----0---------0-----0-----------0===------
D: ------2---------------2-----2p0-------0-----------0-------0-----
A: 0---------------0---------------2-----------2p0-------------0---
D: ------------------------------------------------0=------------0-
   .       .       .       .       .       .       .       .       .

                                                       ^       
d: --0-----0---------0-----0-----------------0---0---0=============
a: ----------------------------------------------------------------
g: ----0-----0---0-----0-----0---0-----------2---2---2-0===========
D: ------0---------------0-----------------------------------------
A: ----------------------------------------------------------------
D: 5-----------5---4-----------4--s2==-------2---2---2===========4s
   .       .       .       .       .       .       .       .       .


Chorus Refrain:
d: --0-----0---------0---------------0-----0---------0-------------
a: ----------------------------------------------------------------
g: ----0-----0---0-----0---------------0-----0---0-----0-----------
D: ------0---------------0=--------------0---------------0=--------
A: ----------------------------------------------------------------
D: 5-----------5---4-------------4s5-----------5---4-------------4s
   .       .       .       .       .       .       .       .       .

                                                       ^        
d: --0-----0---------0-----0-----------------0---0---0======-------
a: ------------------------------------------0---0---0======-------
g: ----0-----0---0-----0-----0---0---------------------0====-----h2
D: ------0---------------0-----------------------------------------
A: ----------------------------------------------------------------
D: 5-----------5---4-----------4--s2==-------2---2---2===========p0
   .       .       .       .       .       .       .       .       .


Ending Riff Intro:                                    
d: ----0-------0-----0-----0-------0---0-------0-----0-----0-------
a: --0-------------------------------0-----------------------------
g: ==----0=--------0-------0-----h2------0=--------0-------0-------
D: ----------0---4p0---0h2-----0-------------0---4p0---0h2---------
A: ------------------------------0-----------------------------0---
D: 0=------------------------------0-------------------------------
   .       .       .       .       .       .       .       .       .


Ending Riff:                       ritard.....                  
d: ----0-------0-----0---------0-------0-------0-------0=====0=====
a: --0-------------------------------0-----------------7h9p7-------
g: ------0=------0-----0-----0-----------0=------0-------------2p0=
D: 0---------0-----4-----0h2-------0---------0-------0-------------
A: ------------------------------0=--------------------------------
D: ------------------------------------------------0=============== 
   .       .       .       .       .       .       .       .       .


d: ----------------------------------------------------------------
a: ----------------------------------------------------------------
g: ----------------------------------------------------------------
D: 2s4=============------------------------------------------------
A: 0===============------------------------------------------------
D: 0===============------------------------------------------------
   .       .       .       .       .       .       .       .       .


Original transcription by: Megan Gandy (GandyM@lrc.edu)
Update by: Tom O (taylor814@austin.rr.com)
Notes:
(1) This transcription will sound about 80% the same as the original
    transcription from which I started.  I simply had trouble
    reading the original which didnít include measures, so I added
    measures.
(2) I then saw some flaws in the transcription and made a few
    corrections, then ended up re-transcribing for several reasons.
    (a) The song varies too much from verse-to-verse to tab with
        repeats.  So I tabbed it linearly.
    (b) I changed the tuning from double drop-D to DADGAD to solve
        some problems, primarily the ending riff which could not be
        played in double drop-D.  This actually simplified the 
        fingerings overall and as you can see probably 80% of the 
        notes are now open strings.
(3) Many of the pull-offs are just a natural side effect of playing
    this piece, but I decided to transcribe those that seemed 
    deliberate rather than incidental.
(4) The h2 hammer-ons on the g string are very subtle but important
    components of the sound of the piece.  They need to be played just 
    prior to the next downbeat.  Listen closely for it on the CD.
(5) The intro is very free-flowing, youíll have to listen to the CD
    to get the timing and feeling down.
(6) I tabbed this with the help of a Boss BR-8 that allowed me to 
    cut out the vocals and play at half-speed.  Iím sure 99% of the
    notes are correct.  I had to guess at the string in some cases,
    but slides clarified that in most cases.

Comments about this tab

roknguitarist - 2004-12-30

wow, that's confusing.


Add a comment/correction

Complimentary Christian Ringtones
Dadamobile and CGR have teamed up to bring your favorite Christian artists right to your phone. Sign up today and get 10 complementary ringtones!
Tab Country
Did you know CGR has a sister site w/ country guitar tabs? Well we do! Its called Tab Country. It has a great archive with a lot of country tabs.
Rockin Tabs
Are you looking for a site that has rock guitar tabs? Then Rockintabs.com is the place for you. It is a budding site with many rock guitar tabs. Submit your tab today.
Tab Gallery
Tab Gallery has a compilation of christian, rock, and country tabs all in one place. Come visit us.