Guitar Tabs
song title    band name

Join Us Today!

Don't strum alone...
be a part of the largest online Christian music community. Browse thousands of guitar tabs and chat w/ musicians like yourself.


It's Free!

Relient K - College Kids

This tab has been rated a 3.88 out of 5 for accuracy. (8 votes)Sorry, but you must be logged in to rate this tab.
Click here to log-in, or you can click here to register.
(Registration is free)

All songs owned by corresponding publishing company. If you make copies of any song on this website, be sure to report your usage to CCLI.
Song:  College Kids
Artist: Relient K
Album: Two Lefts Don't Make A Right, but Three Do...
Tabbed By:  Matt W.
What's up guys.  This song is extremely awesome.  I'll just give you
the chords and you guys can figure out the timing.  Relient K ROCKS!!!

Intro
e|----------------------------------------------------|
B|----------------------------------------------------|
G|-5------2-x-x-x-x-x-x-------------------------------|
D|-5------2-x-x-x-x-x-x--3-x-x-x-x-x-x--5-x-x-x-x-x-x-|  (2 times)
A|-3------0-x-x-x-x-x-x--3-x-x-x-x-x-x--5-x-x-x-x-x-x-|   (let the last chord
E|-----------------------1-x-x-x-x-x-x--3-x-x-x-x-x-x-|   ring out the 2nd time)


Riff leading into verse(this goes pretty fast)
e|------------------------------------------------------|
B|------------------------------------------------------|
G|-9n10p9----12--9h10p9----12--9h10p9----12----9h10-7h9-|
D|--------10------------10------------10----------------| 
A|------------------------------------------------------|   
E|------------------------------------------------------| 

Verse (try to figure out the timing by yourselves)
e|-----------|
B|-----------|
G|-5---2-----|
D|-5---2---3-| 
A|-3---0---3-| 
E|---------1-|

Chorus  (figure out the timing yourselves slackers)
e|-----------|
B|-----------|
G|-5---------|
D|-5---3---5-| 
A|-3---3---5-| 
E|-----1---3-|


I'll get back to you guys with the bridge and the end of the song, but
right now i gotta go to band practice so i'll talk to you later.  Take it
easy everybody.  WASSUP JOHNNY!!!

Comments about this tab

GuyWithAGuitar7 - 2004-07-03

This is an awesum tab
sounds just like the song


MarkM - 2004-10-23

For the riff...I think it would be easier to play 8 on the b string instead of 12 on g. It just has better finger positioning...thats what i think anyway...nice tab!MarkM


Praise4Christ - 2005-03-18

Hi, I'm trying to teach myself how to play the guitar. someone explained how to do the tabs but i still don't get it. could you help me with that? Thanks!
Prais4Christ


rockclimber06 - 2005-05-21

Youre not alone... I am also trying to teach myself the guitar... but I dont quite understand them either.

rockclimber06123


collegerocker17 - 2005-06-06

Don't worry. Tabs aren't hard. I believe there's a lesson on how to read them in the "Lessons" section of this site. Otherwise:

These six lines represent your guitar strings. The notes on the left corespond with the string names on your guitar (EADGBE from your head looking down at your strings). The E and A lines are the same as the first and second strings on your guitar (first and second going down, from your body, that is. Coresponding to your string names.

E|----------------------
B|----------------------
G|----------------------
D|----------------------
A|----------------------
E|----------------------

Now, the numbers represent frets (0 means open string). So:

E|--0-----------------
B|--0-----------------
G|--1-----------------
D|--2-----------------
A|--2-----------------
E|--0-----------------

This is the same as an Em chord on your guitar.
Hope this makes it easier.

-Caleb
collegerocker17


Bisquick - 2005-06-28

Good tab, but like a previous person said I prefer to do the 8 on B instead of the 12 on G, simply because the fingering is easier. Oh and good lesson on tabs, but (and I'm sure you know this, just a typo) that's actually an E chord.
If anyone would like any further help with tabs, you can IM me on AIM at Spymod HF.


Grbulldog21 - 2005-08-09

hey nice explanation on tab


deerborn11 - 2005-10-07

hey what dos the x mean


godsmusicgeek - 2011-04-22

i believe, but i'm not sure, x means the same thing as an open string. but i'm not 100% sure. any1 kno if that's rite?


godsmusicgeek - 2011-04-22

also what does the h mean and how do i do whatever it means?


Add a comment/correction

Complimentary Christian Ringtones
Dadamobile and CGR have teamed up to bring your favorite Christian artists right to your phone. Sign up today and get 10 complementary ringtones!
Tab Country
Did you know CGR has a sister site w/ country guitar tabs? Well we do! Its called Tab Country. It has a great archive with a lot of country tabs.
Rockin Tabs
Are you looking for a site that has rock guitar tabs? Then Rockintabs.com is the place for you. It is a budding site with many rock guitar tabs. Submit your tab today.
Tab Gallery
Tab Gallery has a compilation of christian, rock, and country tabs all in one place. Come visit us.