Guitar Tabs
song title    band name

Join Us Today!

Don't strum alone...
be a part of the largest online Christian music community. Browse thousands of guitar tabs and chat w/ musicians like yourself.


It's Free!

This tab has been rated a 5.00 out of 5 for accuracy. (2 votes)Sorry, but you must be logged in to rate this tab.
Click here to log-in, or you can click here to register.
(Registration is free)

All songs owned by corresponding publishing company. If you make copies of any song on this website, be sure to report your usage to CCLI.
All I Want Is You
Delirious?
Words and Music by Martin Smith
Transcribed by Joel Elliott (J_skunk@hotmail.com)
July 26, 1998
Additions and fingering corrections by jed      
jclgreat@juno.com
November 22, 1998
Full solo added February 21, 1999 by jed


Intro/Verse
palm mute
------------------------------------------------------------------------------
------------------------------------------------------------------------------
------------------------------------------------------------------------------
------------------------------------------------------------------------------
--7-7-7-7-7-7-7-7--5-5-5-5-5-5-5-5--3-3-3-3-3-3-3-3--5-5-5-5-5-5-5-5----------
------------------------------------------------------------------------------

Pre Chorus
G  D
C2

Chorus: (without words)
G  Em  C  G  Em  C


G  C2
G
Em  C

Chorus:
G  Em  C

Verse 2:
------------------------------------------------------------------------------
------------------------------------------------------------------------------
------0----0-----------0----0-----------0----0-----------0----0---------------
----0----0---0-------0----0---0-------0----0---0-------0----0---0-------------
--7----------------5----------------3----------------5------------------------
------------------------------------------------------------------------------

Chorus
Bridge:
C  G/B  D
C

Solo: (played over chorus chords- remember G is two measures and Em and
C get just a measure)
------------------------------------------------------------------------------
------------------------------------------------------------------------------
------------------------------------------------------------------------------
--7v--------9v--------9/7--7-------------------------------------5------------
-------------------------------10----9----9--10--9--7----7/5--5---------------
------------------------------------------------------------------------------

------------------------------------------------------------------------------
------------------------------------------------------------------------------
------------------------------------------------------------------------------
--5/4--7---------------------5--5--5----4--5--7----5/7/9----------------------
----------5-5-5----5/7----7---------------------------------------------------
------------------------------------------------------------------------------

------------------------------------------------------------------------------
------------------------------------------------------------------------------
--------------------------------------------------------------7v--------------
--9----7----10----9----------------------9----7----10----9--------------------
-----------------------10----10h12p10-----------------------------------------
------------------------------------------------------------------------------


Chords:
  G      C      D    Em   G/B
--3----3----2----3----3-------------------------------------------------------
--3----3----3----3----3-------------------------------------------------------
--0----0----2----0----0-------------------------------------------------------
--0----2----0----2----0-------------------------------------------------------
--2----3---------2----2-------------------------------------------------------
--3--------------0------------------------------------------------------------

Comments about this tab

No comments/corrections found. Add your own

Complimentary Christian Ringtones
Dadamobile and CGR have teamed up to bring your favorite Christian artists right to your phone. Sign up today and get 10 complementary ringtones!
Tab Country
Did you know CGR has a sister site w/ country guitar tabs? Well we do! Its called Tab Country. It has a great archive with a lot of country tabs.
Rockin Tabs
Are you looking for a site that has rock guitar tabs? Then Rockintabs.com is the place for you. It is a budding site with many rock guitar tabs. Submit your tab today.
Tab Gallery
Tab Gallery has a compilation of christian, rock, and country tabs all in one place. Come visit us.