Guitar Tabs
song title    band name

Join Us Today!

Don't strum alone...
be a part of the largest online Christian music community. Browse thousands of guitar tabs and chat w/ musicians like yourself.


It's Free!

This tab has not yet been rated for accuracy.Sorry, but you must be logged in to rate this tab.
Click here to log-in, or you can click here to register.
(Registration is free)

All songs owned by corresponding publishing company. If you make copies of any song on this website, be sure to report your usage to CCLI.
Mary
Words and Music by Dana Key
on Straight On
Copyright 1978

Tab only for D during "Mary...day" (1st time), "Mary...again", and
after "today" at end
  Dsus2        Dsus4 D      Dsus2        Dsus4 D
|-------0----|-3-----2----|-------0----|-3-----2----|
|-3----------|------------|-3----------|------------|
|----2-----2-|----2-----2-|----2-----2-|----2-----2-|
|-0-----0----|-0-----0----|-0-----0----|-0-----0----|
|------------|------------|------------|------------|
|------------|------------|------------|------------|

Tab only for "And he's risen...what he said" and "And he's higher...power to
save"
  G            D            A            D            G
|----------3-|-------2----|----------0-|-------2----|----------3-|
|-0----------|-3--------3-|-2----------|-3--------3-|-0----------|
|----0-------|----2-------|----2-------|----2-------|----0-------|
|-------0----|-0-----0----|-------2----|-0-----0----|-------0----|
|------------|------------|-0----------|------------|------------|
|-3----------|------------|------------|------------|-3----------|

  D            A                         G     G/F#   G/E
|-------2----|------------|------------|------------|------------|
|-3--------3-|-2--------2-|-2--------2-|-0-----0----|-0--------0-|
|----2-------|----2-------|----2-------|----0-----0-|----0-------|
|-0-----0----|-------2----|-------2----|------------|-------0----|
|------------|-0----------|-0----------|------------|------------|
|------------|------------|------------|-3-----2----|-0----------|

  A            Dsus2        Dsus4 D      Dsus2        Dsus4 D
|------------|-------0----|-3-----2----|-------0----|-3-----2----|
|-2--------2-|-3----------|------------|-3----------|------------|
|----2-------|----2-----2-|----2-----2-|----2-----2-|----2-----2-|
|-------2----|-0-----0----|-0-----0----|-0-----0----|-0-----0----|
|-0----------|------------|------------|------------|------------|
|------------|------------|------------|------------|------------|

Dsus2        Dsus4    D    Dsus2 Dsus4 D
Mary why did you come here?
Dsus2                           Dsus4 D           Dsus2 Dsus4 D
With your heart so sad and your eyes  filled with tears
Dsus2                   Dsus4       D   Dsus2 Dsus4 D
Think back, think back, what did he say?
Dsus2                           Dsus4       D        Dsus2 Dsus4 D
He said that he'd die, but he'd rise on the third day
         G D    A                  D
And he's risen, raised up with our sins forgiven
G D               A
Risen up from the dead
G     G/F#  G/E A                Dsus2 Dsus4 D Dsus2 Dsus4 D
Oooh, oooh, oooh, he did what he said

Dsus2             Dsus4 D
Mary please don't be afraid

There's no man there where he did lay

Run now, run now, tell your friends

Jesus was dead but he lives again
         G   D   A                D
And he's higher, raised up by the Father's power
G   D              A
Higher up from the grave
G     G/F#  G/E A                   D
Oooh, oooh, oooh, with the power to save


(Bridge)
  G               Gadd9            G
|---------------|----------------|---------------|---------------|
|-0--------0----|--0--------0----|-0--------0----|-0--------0----|
|----0--------0-|-h2--2--------2-|----0--------0-|----0--------0-|
|-------0-------|--------0-------|-------0-------|-------0-------|
|---------------|----------------|---------------|---------------|
|-3-------------|--3-------------|--3------------|-3-------------|

                  Gadd9            G               A
|---------------|----------------|---------------|---------------|
|-0--------0----|--0--------0----|-0--------0----|-2--------2----|
|----0--------0-|-h2--2--------2-|----0--------0-|----2--------2-|
|-------0-------|--------0-------|-------0-------|-------2-------|
|---------------|----------------|---------------|-0-------------|
|-3-------------|--3-------------|--3------------|---------------|

  D                                           
|---------------|---------------|-----------0--2-|-------3h2p0---|
|-3--------3----|-3--------3----|-3--------------|-3-----------3-|
|----2--------2-|----2--------2-|----2-----------|---------------|
|-------0-------|-------0-------|-------0---0--0-|----0----------|
|-0-------------|-0-------------|--0-------------|---------------|
|---------------|---------------|----------------|---------------|

                  Dsus4 D     Dsus2  G               Gadd9
|-2--------2----|-3-----2-----0----|---------------|----------------|
|----3--------3-|----3-----3-----3-|-0--------0----|--0--------0----|
|-------2-------|------------------|----0--------0-|-h2--2--------2-|
|-0-------------|-0-----0-----0--0-|-------0-------|--------0-------|
|---------------|------------------|---------------|----------------|
|---------------|------------------|-3-------------|--3-------------|

  G               A
|---------------|----------------|
|-0--------0----|-2--------2-----|
|----0--------0-|----2--------2--|
|-------0-------|-------2--------|
|---------------|-0--------------|
|-3-------------|----------------|

D A G D (twice)

D    A       G        D   D A G D
Mary why did you come here?
D                  A            G                D    A G D
With your heart so sad and your eyes filled with tears
              D        A        G         D      D A G D
Why don't you run now, run now, tell your friends
D         A           G     D   D A G D
Jesus was dead but he lives again
         G  A G    G  A G    G  A G   A D
And he's ri-i-sen, ri-i-sen, ri-i-sen today!

Transcribed by Joshua R. Martinez
		guitarman4christ@netzero.net

Visit my CCM site at http://freeweb.pdq.net/pokes.66/ccm/ccm.htm

If there are any classic CCM that you wish to have chords to, e-mail your
request to me.

God bless you.

Comments about this tab

tdper - 2008-11-06

This song was actually originally recorded in an alternate tuning: low to high, F, F#, C#, F#, A#, C#. I've never tabbed before, but I'll try tabbing this one in the alt. tuning and will post it. It's a really good Easter song.


Add a comment/correction

Complimentary Christian Ringtones
Dadamobile and CGR have teamed up to bring your favorite Christian artists right to your phone. Sign up today and get 10 complementary ringtones!
Tab Country
Did you know CGR has a sister site w/ country guitar tabs? Well we do! Its called Tab Country. It has a great archive with a lot of country tabs.
Rockin Tabs
Are you looking for a site that has rock guitar tabs? Then Rockintabs.com is the place for you. It is a budding site with many rock guitar tabs. Submit your tab today.
Tab Gallery
Tab Gallery has a compilation of christian, rock, and country tabs all in one place. Come visit us.