Guitar Tabs
song title    band name

Join Us Today!

Don't strum alone...
be a part of the largest online Christian music community. Browse thousands of guitar tabs and chat w/ musicians like yourself.


It's Free!

Kutless - Tonight

This tab has been rated a 4.79 out of 5 for accuracy. (14 votes)Sorry, but you must be logged in to rate this tab.
Click here to log-in, or you can click here to register.
(Registration is free)

All songs owned by corresponding publishing company. If you make copies of any song on this website, be sure to report your usage to CCLI.
Song- Tonight
  Artist- Kutless
  Tabbed by- Tyler Smith
  Tuning- dropped d
  Key- ^=harmonic, *= palm mute


  Intro-(guitar with slight auto-wah) 
  e-x
  b-x
  g-x
  d-x
  a--5--5/6-5\4/5--5--5/6-5\4/5--5--5/6-8---5-let ring
  d-0--0---0--0---0--0---0--0---0-0--0-0---0--
========================================================
  Intro 2-(chorus)-distortion
  e-x
  b-x
  g-x
  d-0-0-0-0-3/8--0-0-0-0-3---10--0-0-0-0-3/8-0-3-2-0-2-0
  a-0-0-0-0-3/8--0-0-0-0-3---10--0-0-0-0-3/8-0-3-2-0-2-0
  d-0-0-0-0-3/8--0-0-0-0-3-3-10--0-0-0-0-3/8-0-3-2-0-2-0
                           ^                   * * * *
========================================================
  Verse-(guitar 1, the second guitar will run underneath
  the first guitar part so you know when to play it)
  e-x
  b-x  
  g-x           1st guitar!!!(clean)
  d-x
  a--5--5/6-5\4/5--5--5/6-5\4/5--5--5/6-8---5-
  d-0--0---0--0---0--0---0--0---0-0--0-0---0--
=========================================================
  e-x
  b-x
  g-x           1st guitar!!!(clean)
  d-x
  a--5--5/6-5\4/5--5--5/6-5\4/5--5--5/6-8---5-
  d-0--0---0--0---0--0---0--0---0-0--0-0---0--
========================================================= 
  d-0-0----0-0----0-0----0-0----0-0--0-0-
  a-0-0----0-0----0-0----0-0----0-0--0-0-second guitar
  d-0-0----0-0----0-0----0-0----0-0--0-0-(distortion)
    * *    * *    * *    * *    * *  * *
=========================================================  
Chorus(same as intro 2)
=========================================================
  Verse 2
  e-x
  b-x  
  g-x           1st guitar!!!(clean)
  d-x
  a--5--5/6-5\4/5--5--5/6-5\4/5--5--5/6-8---5-
  d-0--0---0--0---0--0---0--0---0-0--0-0---0--
=========================================================  
  d--------------------------------------------0-3-2-3-
  a--------------------------------------------0-3-2-3-
  d--------------------------------------------0-3-2-3-
                                               *   
=========================================================
  e-x
  b-x  
  g-x         1st guitar(distortion)
  d--------------------------------------------0-3-2-0-2-
  a--5--5/6-5\4/5--5--5/6-5\4/5--5--5/6-8---5--0-3-2-0-2-
  d-0-0-0-0-0-0-0-0-0-0-0-0-0-0-0-0-0-0-0-0-0--0-3-2-0-2-
    * * * * * * * * * * * * * * * * * * * * *  *
=========================================================
  d-0-0----0-0----0-0----0-0----0-0--0-0---------3-2-0-2-
  a-0-0----0-0----0-0----0-0----0-0--0-0---------3-2-0-2-
  d-0-0----0-0----0-0----0-0----0-0--0-0---------3-2-0-2- 
=========================================================
  Chorus  
=========================================================
             Bridge
  Guitar 1 Clean
  e-
  b-                             | This part is played
  g-                             |twice.
  d---4--4-5-5-4-4/--10-10-10-10/|-12-------------------
  a--5----5-5--5-5/-8---8--8--8/-|-12-12-13-13-12-10-12-
  d-0--0-0--0--0-0-0---0--0--0---|-0-0--0--0--0--0--0---
========================================================
I will put guitar 0ne above guitar 2 so you can see 
where to play the harmonics!!!!!!!!!!!!!!!!!!!!!!!!
======================================================== 
Guitar 1 Clean
  e-
  b-                             | This part is played
  g-                             |twice.
  d---4--4-5-5-4-4/--10-10-10-10/|-12-------------------
  a--5----5-5--5-5/-8---8--8--8/-|-12-12-13-13-12-10-12-
  d-0--0-0--0--0-0-0---0--0--0---|-0-0--0--0--0--0--0---
========================================================
Guitar 2 distortion
  d------------------------------12---------------------
  a----5--0-0---7----------------12---------------------
  d-0-5^--0-0--7^----------------12---------------------      ^   * *  ^                 ^^
========================================================
  Guitar1&2 distortion
  e-
  b-                                  | this part x2
  g-                                  |
  d-----4-4---4-4-5/---10-10--10-10-10|----12-12---------
  a-----5-5---5-5-5/---8--8---8--8--8-|----12-12---12/13-
  d-0-0----0-0-0-0--0-0----0-0--0--0----0-0-----0-0-----0
    * *    * * * *  * *    * *  *  *    * *     * *     *

  e-
  b-
  g-
  d------------
  a-13\12-10-12
  d---0--0-----
=========================================================
  e-
  b-                                  
  g-                                  
  d-----4-4---4-4-5/---10-10--10-10-10/----12-12---------
  a-----5-5---5-5-5/---8--8---8--8--8-/----12-12---12/13-
  d-0-0----0-0-0-0--0-0----0-0--0--0----0-0-----0-0-----0
    * *    * * * *  * *    * *  *  *    * *     * *     *

  e-
  b-
  g-
  d----------------3-2-0-2-0--2-2
  a-13\12-10-12----3-2-0-2-0--2-2
  d---0--0-------0-3-2-0-2-0--2-2
=========================================================
Chorus
=========================================================
Thats all enjoy. Tyler

Comments about this tab

Jesus_Freak226 - 2005-06-03

great tab dude. did you get this out of a book or tab it yourself


whoook37 - 2005-07-09

i think the chorus part is off by a few chords....


d-0-0-0-3-3/8-8-8-0-0-0-3-3-3-10-10-10-0-0-0-3-3-3/8-8-8-3-2-0-2-0
a-0-0-0-3-3/8-8-8-0-0-0-3-3-3-10-10-10-0-0-0-3-3-3/8-8-8-3-2-0-2-0
d-0-0-0-3-3/8-8-8-0-0-0-3-3-3-10-10-10-0-0-0-3-3-3/8-8-8-3-2-0-2-0
* * * *


this song rocks!!! and tell me if i got anything screwed up here


whoook37 - 2005-07-09

sorry that other correction came out wrong the palm mute is supposed to be on the -3-2-0-2 part not on the beginning


guitarcordfreak - 2006-09-21

awesome tab dude verry accurate!!!!


StellarFreak - 2008-02-28

the chorus should be:

D-0-0-0/3-3-3/8-8-0-0-0/3-3-3/10-10-0-0-0/3-3-3/8-8-0-3\2\0/2-0
A-0-0-0/3-3-3/8-8-0-0-0/3-3-3/10-10-0-0-0/3-3-3/8-8-0-3\2\0/2-0
D-0-0-0/3-3-3/8-8-0-0-0/3-3-3/10-10-0-0-0/3-3-3/8-8-0-3\2\0/2-0
. . . .

peace out


StellarFreak - 2008-02-28

woo ignore the dots at the begining.just palm mut it on the 3\2\0/2 the strum
the last 0


Add a comment/correction

Complimentary Christian Ringtones
Dadamobile and CGR have teamed up to bring your favorite Christian artists right to your phone. Sign up today and get 10 complementary ringtones!
Tab Country
Did you know CGR has a sister site w/ country guitar tabs? Well we do! Its called Tab Country. It has a great archive with a lot of country tabs.
Rockin Tabs
Are you looking for a site that has rock guitar tabs? Then Rockintabs.com is the place for you. It is a budding site with many rock guitar tabs. Submit your tab today.
Tab Gallery
Tab Gallery has a compilation of christian, rock, and country tabs all in one place. Come visit us.