Guitar Tabs
song title    band name

Join Us Today!

Don't strum alone...
be a part of the largest online Christian music community. Browse thousands of guitar tabs and chat w/ musicians like yourself.


It's Free!

12 Stones - Broken

This tab has been rated a 4.00 out of 5 for accuracy. (3 votes)Sorry, but you must be logged in to rate this tab.
Click here to log-in, or you can click here to register.
(Registration is free)

All songs owned by corresponding publishing company. If you make copies of any song on this website, be sure to report your usage to CCLI.
12 Stones
Broken

E----------------------------------------------------------------
B-------------------------------------------------1-1------------
G-----------------0-0---------------------------------3-3-2-2-3-3- x3 
D-0-0-3-3-2-2-3-3-----3-3-2-2-3-3-----3-3-2-2-3-3----------------
A---------------------------------1-1----------------------------
E----------------------------------------------------------------

the 4th time goes like this

E----------------------------------------------------------------
B-------------------------------------------------1-1-1/2---------
G-----------------0-0-------------------------------------------- 
D-0-0-3-3-2-2-3-3-----3-3-2-2-3-3-----3-3-2-2-3-3----------------
A---------------------------------1-1----------------------------
E----------------------------------------------------------------

it sounds best if you play the first 2 times with fast down-strokes and
the lst 2 with alternate picking.

i've tabbed most of the song i just didnt have the time to put it up here.
if you want it email me at JrOd8807@netscape.net 
enjoy.

Comments about this tab

eclipse_047 - 2005-05-24

Good Job! but in the video he plays it like this i think.
the first two times it is palm muted.
|-----------------------------------------------------------------------------|
|-----------------------------------------------------------------------------|
|-----------------------------------------------------------------------------|
---------------------------------------------------------12-12-10-10-9-9-10-10|
---10-10-9-9-10-10-12-12-10-10-9-9---------10-10-9-9-10-10--------------------|
0-0-------------------------------12-12-8-8--------------------------------X3-|

Ok on the 4th time it goes like this.
|-----------------------------------------------------------------------------|
|-----------------------------------------------------------------------------|
|----------------------------------------------------------sloooowly beeeeend-|
----------------------------------------------------------12-12-12-12-12-12-12|
---10-10-9-9-10-10-12-12-10-10-9-9---------10-10-9-9-10-10--------------------|
0-0-------------------------------12-12-8-8-----------------------------------|
enjoy and if you see anything wrong tell me i want to get this right!


Add a comment/correction

Complimentary Christian Ringtones
Dadamobile and CGR have teamed up to bring your favorite Christian artists right to your phone. Sign up today and get 10 complementary ringtones!
Tab Country
Did you know CGR has a sister site w/ country guitar tabs? Well we do! Its called Tab Country. It has a great archive with a lot of country tabs.
Rockin Tabs
Are you looking for a site that has rock guitar tabs? Then Rockintabs.com is the place for you. It is a budding site with many rock guitar tabs. Submit your tab today.
Tab Gallery
Tab Gallery has a compilation of christian, rock, and country tabs all in one place. Come visit us.