Guitar Tabs
song title    band name

Join Us Today!

Don't strum alone...
be a part of the largest online Christian music community. Browse thousands of guitar tabs and chat w/ musicians like yourself.


It's Free!

DC Talk - What If I Stumble

This tab has not yet been rated for accuracy.Sorry, but you must be logged in to rate this tab.
Click here to log-in, or you can click here to register.
(Registration is free)

All songs owned by corresponding publishing company. If you make copies of any song on this website, be sure to report your usage to CCLI.
Tab Entry: Artist: dc Talk
Title: What If I Stumble 
Album: Jesus Freak 
Transcribed by: Matthew D. 
Email: matt110_@excite.com


Intro Lead  (listen to tape for timing)

E--15/17--(17)\-------------------------------------------------
B---------------5/6/10\8---(8)6\5/6/8\6\5/6-5/6\5\3-(3)/13\-----
G---------------------------------------------------------------
D---------------------------------------------------------------
A---------------------------------------------------------------
E---------------------------------------------------------------


Intro

Rthym guitar 1
E--------------------------------------------------------------------------
B-------6--6--6-----------------8-------6--5--6--8--6--5--6----------------
G-------7--7--7---5-5-5-7---------------7--7--7--7--7--7--7----------------
D-----7-----------5-5-5-5--5/7----9--0---------------------------5-------5-
A--5---------------------------------------------------------5/7---5/7\5---
E--------------------------------------------------------------------------

Rthym guitar 2 (12-str. acous.) (Played at the same time as Rhy. guitar 1)
E-------------------------------------------------------0-------------------
B-------6--6--6---------3---------------------------------------------------
G-------7--7--7---5-5-5-4--------------7-------7------5-----4---------------
D-----7-----------5-5-5-5-----------7-------7-----7---5-----5---------------
A--5-----------------------------5--------5-------------------------3--5/7--
E---------------------------------------------------------------5-----------


The solo is a mandolin so i wont bother to tab it out.  I believe the
tab for the solo
(http://christianmusic.org/guitar/tab/d/dc_talk/what_if_i_stumble.solo.tab)
is pretty accurate.


For the rest of the song, use similar picking as the intro. 

Dm
C  G
F6 C G
F6 C G 
F6 C G

pre chorus
Bb F C
Bb F C

Chorus 1
C  G E
Am F
C
G  E
Am F G F6

(play intro or use these chords)
the part in the background with toby mac
F6
C G

F6
C G

Verse 2:
same as 1

Pre chorus 2
same as 1

the part in the background with toby mac #2

solo (with chorus)

(Play intro) 

(fade intro)

Comments about this tab

No comments/corrections found. Add your own

Complimentary Christian Ringtones
Dadamobile and CGR have teamed up to bring your favorite Christian artists right to your phone. Sign up today and get 10 complementary ringtones!
Tab Country
Did you know CGR has a sister site w/ country guitar tabs? Well we do! Its called Tab Country. It has a great archive with a lot of country tabs.
Rockin Tabs
Are you looking for a site that has rock guitar tabs? Then Rockintabs.com is the place for you. It is a budding site with many rock guitar tabs. Submit your tab today.
Tab Gallery
Tab Gallery has a compilation of christian, rock, and country tabs all in one place. Come visit us.