Guitar Tabs
song title    band name

Join Us Today!

Don't strum alone...
be a part of the largest online Christian music community. Browse thousands of guitar tabs and chat w/ musicians like yourself.


It's Free!

This tab has been rated a 5.00 out of 5 for accuracy. (2 votes)Sorry, but you must be logged in to rate this tab.
Click here to log-in, or you can click here to register.
(Registration is free)

All songs owned by corresponding publishing company. If you make copies of any song on this website, be sure to report your usage to CCLI.
"Bi-Se I Mo Shuil Ė Part 2"
By Iona
Off of "Heavenís Bright Sun" and "Journey Into the Morn"
Written by Iona
(C) 1997 Alliance Music
Transcribed by Myron Marston (guitar_melosh@hotmail.com)

Bi-Se I Mo Shuil is a Gaelic adaptation of the hymn, "Be Thou My Vision."
The music transcribed below is the Uilleann Pipe/Lead Guitar melody played
during the 11/8 section of the song.  

Iíve notated the rhythm below by subdividing each bar into 16th notes,
and indicating where each note is played.  Each line of tab represents
one measure, and since each measure ends with a string of 16th notes
leading up to the eighth note on the downbeat of the next bar, Iíve put
the first note of the next measure at the end of each line.

  1  +  2  +  3  +  4  +  5  +  6  +  7  +  8  +  9  + 10  + 11  +   1
e------------------------------------------------------------------|---
B----------------5-----------------------------------------------5-|-6-
G-7-----7--5--7-----7--5-----------4--------5--4-----------5--7----|---
D-------------------------7--5--7-----7--------------5--7----------|---
A------------------------------------------------------------------|---
E------------------------------------------------------------------|---

  1  +  2  +  3  +  4  +  5  +  6  +  7  +  8  +  9  + 10  + 11  +   1
e------------------------------------------------------------------|---
B-6-----6--5--6--8--6--5--------5--------------------------------5-|---
G-------------------------7--5-----5--7-----5--4--------4--5--7----|-7-
D------------------------------------------------------------------|---
A------------------------------------------------------------------|---
E------------------------------------------------------------------|---

  1  +  2  +  3  +  4  +  5  +  6  +  7  +  8  +  9  + 10  + 11  +   1
e-------5-----------------------------------------------------5--7-|-8-
B----------8--6--5--8-----6--5-----5--6--5-----6--5----------------|---
G-7--------------------------------------------------7--5----------|---
D------------------------------------------------------------------|---
A------------------------------------------------------------------|---
E------------------------------------------------------------------|---

  1  +  2  +  3  +  4  +  5  +  6  +  7  +  8  +  9  + 10  + 11  +   1
e-8-----8--5--7-----5--------------------------5--6--5-------------|---
B----------------8-----------5--6-----8-----8-----------8--6--5----|---
G-------------------------7--------7-----------------------------5-|-7-
D------------------------------------------------------------------|---
A------------------------------------------------------------------|---
E------------------------------------------------------------------|---

Comments about this tab

ScottAN - 2004-11-03

I am working on a correction for this tab. Some of the note values are incorrect, as well the actual notes.


ScottAN - 2004-11-03

I am working on a correction for this tab. Some of the note values are incorrect, as well the actual notes.


R2D2 - 2004-11-21

I don't want to quibble, but I'm convinced the tab above is right. I took it from the live version off of Heaven's Bright Sun. Maybe the version on Journey to the Morn (which I don't own) is different, but I'm sure the above is correct for the HBS version. I even entered it into Finale to double check it :).


Add a comment/correction

Complimentary Christian Ringtones
Dadamobile and CGR have teamed up to bring your favorite Christian artists right to your phone. Sign up today and get 10 complementary ringtones!
Tab Country
Did you know CGR has a sister site w/ country guitar tabs? Well we do! Its called Tab Country. It has a great archive with a lot of country tabs.
Rockin Tabs
Are you looking for a site that has rock guitar tabs? Then Rockintabs.com is the place for you. It is a budding site with many rock guitar tabs. Submit your tab today.
Tab Gallery
Tab Gallery has a compilation of christian, rock, and country tabs all in one place. Come visit us.