Guitar Tabs
song title    band name

Join Us Today!

Don't strum alone...
be a part of the largest online Christian music community. Browse thousands of guitar tabs and chat w/ musicians like yourself.


It's Free!

Blindside - Time Will Change Your Heart

This tab has been rated a 3.33 out of 5 for accuracy. (3 votes)Sorry, but you must be logged in to rate this tab.
Click here to log-in, or you can click here to register.
(Registration is free)

All songs owned by corresponding publishing company. If you make copies of any song on this website, be sure to report your usage to CCLI.
Time Will change your heart
Blindside

Intro

D# ----------------------------
A# ----------------------------
F# ----------------------------
C# -4-4-2-4-5--4-4-2-4-5-4-2---     (4x)
G# ----------------------------
C# ----------------------------

Verse

D# ----------------------------
A# ----------------------------
F# ----------------------------
C# -4-4-2-4-5--4-4-2-4-5-4-2---   
G# -4-4-2-4-5--4-4-2-4-5-4-2---     
C# -4-4-2-4-5--4-4-2-4-5-4-2---    

D# ---------------------------------------------------
A# ---------------------------------------------------
F# ---------------------------------------------------
C# -4-4-2-4-5--4-4-2-4-5-4-2--8-8-8-8-8-8-9-9-9-9-9-9-  (2x)
G# -4-4-2-4-5--4-4-2-4-5-4-2--8-8-8-8-8-8-9-9-9-9-9-9-   
C# -4-4-2-4-5--4-4-2-4-5-4-2--8-8-8-8-8-8-9-9-9-9-9-9-    
 
D# ---------------
A# ---------------
F# ---------------
C# -2-2-2-2--2-2--
G# -2-2-2-2--2-2--
C# -2-2-2-2--2-2--

Chorus

D# ------------------------------------------------
A# ------------------------------------------------
F# ------------------------------------------------
C# -2--2-2h4-4-4h5-5-5h7-7-7p5-5-5p4-4-4p2-2-2p0-0-
G# -2--2-2h4-4-4h5-5-5h7-7-7p5-5-5p4-4-4p2-2-2p0-0-
C# -2--2-2h4-4-4h5-5-5h7-7-7p5-5-5p4-4-4p2-2-2p0-0-

D# ------------------------------------------------
A# ------------------------------------------------
F# ------------------------------------------------
C# -0h2-2-2h4-4-4h5-5-5h7-7-7p5-8-8-8-8h9---------- (2x)
G# -0h2-2-2h4-4-4h5-5-5h7-7-7p5-8-8-8-8h9----------
C# -0h2-2-2h4-4-4h5-5-5h7-7-7p5-8-8-8-8h9----------











Comments about this tab

SomeCallMeTim? - 2004-06-30

Hey i think theres a little solo around 1:40, so if somebody could post it....thanks


SomeCallMeTim? - 2004-07-01

I think the chord progression in the chorus is wrong, i think the first part is like this
D# ------------------------------------------------
A# ------------------------------------------------
F# ------------------------------------------------
C# -2--2-2h4-4-4h5-5-5h7-7-7p5-5-5h8-8-8p2-2-2p0-0-
G# -2--2-2h4-4-4h5-5-5h7-7-7p5-5-5h8-8-8p2-2-2p0-0-
C# -2--2-2h4-4-4h5-5-5h7-7-7p5-5-5h8-8-8p2-2-2p0-0-, i think the 2nd part is correct, though there may be some more F#s at the end


aznguitarist28 - 2004-11-06

um are u sure the first part isnt octaves?


akaukal - 2006-04-27

the first part isn't octaves, and the chord progression sounds fine to me.


Add a comment/correction

Complimentary Christian Ringtones
Dadamobile and CGR have teamed up to bring your favorite Christian artists right to your phone. Sign up today and get 10 complementary ringtones!
Tab Country
Did you know CGR has a sister site w/ country guitar tabs? Well we do! Its called Tab Country. It has a great archive with a lot of country tabs.
Rockin Tabs
Are you looking for a site that has rock guitar tabs? Then Rockintabs.com is the place for you. It is a budding site with many rock guitar tabs. Submit your tab today.
Tab Gallery
Tab Gallery has a compilation of christian, rock, and country tabs all in one place. Come visit us.