Guitar Tabs
song title    band name

Join Us Today!

Don't strum alone...
be a part of the largest online Christian music community. Browse thousands of guitar tabs and chat w/ musicians like yourself.


It's Free!

tobyMac - Extreme Days

This tab has been rated a 5.00 out of 5 for accuracy. (10 votes)Sorry, but you must be logged in to rate this tab.
Click here to log-in, or you can click here to register.
(Registration is free)

All songs owned by corresponding publishing company. If you make copies of any song on this website, be sure to report your usage to CCLI.
Artist: tobyMac
Song: Extreme Days
CD: Momentum
track:
Written by: Toby McKeehan
Tabbed by: Extreme_je5u5Freak@yahoo.com


OK, this is my first time tabing so bear with me. I have played this song
for a while and have a got the hang of it.  I might make of midi of this
sometime in the future to show the rhythm but for now you'll just have to
listen to the cd.  As you know this is all played with lots and lots of
distortion.  Also it's in drop D tuning!

Tuning Drop D:  DADGBe

Intro:

E--------------------------------------------
B--------------------------------------------
G--------------------------------------------
D---0---0---3---5---10-----10---5---3---0---3
A---0---0---3---5---10-----10---5---3---0---3\
D---0---0---3---5---10-----10---5---3---0---3\\
                                             \\\    PLay two times
E--------------------------------------------///
B--------------------------------------------//
G--------------------------------------------/
D---0---0---3---5---10-----10---5---3---0---6
A---0---0---3---5---10-----10---5---3---0---6
D---0---0---3---5---10-----10---5---3---0---6


Since I cannot include the lyrics each tab is about one phrase.....I think

Verse: 

E-------------------------------------------
B-------------------------------------------
G-------------------------------------------
D---0---0----0---0----0---0----0---0--------
A---0---0----0---0----0---0----0---0--------
D---0---0----0---0----0---0----0---0--------
      	

		           

E--------------------------------------------
B--------------------------------------------
G--------------------------------------------
D---0---0----0---0----0---0----0---0----3----
A---0---0----0---0----0---0----0---0----3----
D---0---0----0---0----0---0----0---0----3----
   



E-------------------------------------------
B-------------------------------------------
G-------------------------------------------
D---0---0----0---0----0---0----0---0--------
A---0---0----0---0----0---0----0---0--------
D---0---0----0---0----0---0----0---0--------
      	

		           

E--------------------------------------------
B--------------------------------------------
G--------------------------------------------
D---0---0----0---0----0---0----0---0----3----
A---0---0----0---0----0---0----0---0----3----
D---0---0----0---0----0---0----0---0----3----
  


E--------------------------------------------
B--------------------------------------------
G--------------------------------------------
D---0---3---0---3---0---3---0---3-----------
A---0---3---0---3---0---3---0---3-----------
D---0---3---0---3---0---3---0---3-----------
  				    

E--------------------------------------------
B--------------------------------------------
G--------------------------------------------
D---0---3---0---3---0---3---0---3-----------
A---0---3---0---3---0---3---0---3-----------
D---0---3---0---3---0---3---0---3-----------
  				   



E-------------------------------------------
B-------------------------------------------
G-------------------------------------------
D---0---0----0---0----0---0----0---0--------
A---0---0----0---0----0---0----0---0--------
D---0---0----0---0----0---0----0---0--------
    	

		           

E--------------------------------------------
B--------------------------------------------
G--------------------------------------------
D---0---0----0---0----0---0----0---0----3----
A---0---0----0---0----0---0----0---0----3----
D---0---0----0---0----0---0----0---0----3----
   


E-------------------------------------------
B-------------------------------------------
G-------------------------------------------
D---0---0----0---0----0---0----0---0--------
A---0---0----0---0----0---0----0---0--------
D---0---0----0---0----0---0----0---0--------
    	

		           

E--------------------------------------------
B--------------------------------------------
G--------------------------------------------
D---0---0----0---0----0---0----0---0----3----
A---0---0----0---0----0---0----0---0----3----
D---0---0----0---0----0---0----0---0----3----
   



Pre-chours:

E--------------------------------------------
B--------------------------------------------
G--------------------------------------------
D---0---3---0---3---0---3---0---3----3----4---
A---0---3---0---3---0---3---0---3----x----x---
D---0---3---0---3---0---3---0---3----3----4---
  				   


E--------------------------------------------
B--------------------------------------------
G--------------------------------------------
D---0---3---0---3---0---3---0---3----5----6---
A---0---3---0---3---0---3---0---3----x----x---
D---0---3---0---3---0---3---0---3----5----6---
  				   


E-----------------------------------------------------------
B-----------------------------------------------------------
G-----------------------------------------------------------
D---0---3---0---3---0---3---0---3----7----8-------3-3-3-3-3-
A---0---3---0---3---0---3---0---3----x----x-------3-3-3-3-3-
D---0---3---0---3---0---3---0---3----7----8-------3-3-3-3-3-
  				   

Chorus: 2x

E------------------------------------------------------------------------
B------------------------------------------------------------------------
G------------------------------------------------------------------------
D---------------0----7--6--5--3----3--0----7--6--5--3---0----7--6--5--3--
A---------------0----7--6--5--3----3--0----7--6--5--3---0----7--6--5--3--
D---------------0----7--6--5--3----3--0----7--6--5--3---0----7--6--5--3--
    


E--------------------------------------------
B--------------------------------------------
G--------------------------------------------
D--3-0---3---0---3---0---3---0---3----5-------
A--3-0---3---0---3---0---3---0---3----5-------
D--3-0---3---0---3---0---3---0---3----5-------
   



Then it goes into a sort of bridge intermission thing and has a few guitar
parts that you 

can find on the other extreme days tab.

Then it goes back to the pre-chorus:


Pre-chorus:

E--------------------------------------------
B--------------------------------------------
G--------------------------------------------
D---0---3---0---3---0---3---0---3----3----4---
A---0---3---0---3---0---3---0---3----x----x---
D---0---3---0---3---0---3---0---3----3----4--
     


E--------------------------------------------
B--------------------------------------------
G--------------------------------------------
D---0---3---0---3---0---3---0---3----5----6---
A---0---3---0---3---0---3---0---3----x----x---
D---0---3---0---3---0---3---0---3----5----6---
          


E-----------------------------------------------
B-----------------------------------------------
G----------------------------------------------
D---0---3---0---3---0---3---0---3----7----8----
A---0---3---0---3---0---3---0---3----x----x-----
D---0---3---0---3---0---3---0---3----7----8----
        				   


E-----------------------------------------------
B-----------------------------------------------
G----------------------------------------------
D---0---3---0---3---0---3---0---3----9----10----
A---0---3---0---3---0---3---0---3----x----x-----
D---0---3---0---3---0---3---0---3----9----10----
    	


Chorus x 3

end


Phew! This is my best representation.  I love playing this song really
loud. PLay it with the CD and it sounds awesome. E-mail me if you have
any suggestions or any tab requests.

Extreme_je5u5Freak@yahoo.com

God Bless,
Mike

Comments about this tab

kj52rox - 2004-06-01

Good job. Good first tab!!!


rock-n-4christ - 2005-07-05

dude, way 2 go 4 your first tab!!!! This sounds almost exactly like the song!!!! What is your secret?-
rock-n-4christ


guitarcordfreak - 2006-03-29

DUDE!!!!!!!!!!!!!!!!!!! this is sweeter than sweet and your first tab how do you do it?!?!?!?!!?!?!?! This rocks!!!!!!!!!!!!!!!!!!!!!!!!!!!!!!!!!!!!!!!!!!!!!!!!!!!!!!
there is only one little thing wrong(it's not really wrong). you might want to add a hammer-on to a few spots in the verse. but it sounds good this way too.


HermionePower - 2006-04-06

No way! I wish I could tab like that! Thanks, man! It rox!


Guitar fan man - 2008-02-05

Nice this is really your first tab!!! thats amazing it sounds really cool but my mom has the CD with her and she is at work now so I can't play it with the CD my dad thinks it is annoying (^).(^)


Rapador17 - 2008-03-10

dude, this IS real good for a 1st tab!!!!


go4broke28 - 2008-10-18

Dang man! For a first tab, this is pretty freakin' sweet. I wish my tabbing would be like that.
GuitarHero


Add a comment/correction

Complimentary Christian Ringtones
Dadamobile and CGR have teamed up to bring your favorite Christian artists right to your phone. Sign up today and get 10 complementary ringtones!
Tab Country
Did you know CGR has a sister site w/ country guitar tabs? Well we do! Its called Tab Country. It has a great archive with a lot of country tabs.
Rockin Tabs
Are you looking for a site that has rock guitar tabs? Then Rockintabs.com is the place for you. It is a budding site with many rock guitar tabs. Submit your tab today.
Tab Gallery
Tab Gallery has a compilation of christian, rock, and country tabs all in one place. Come visit us.