Guitar Tabs
song title    band name

Join Us Today!

Don't strum alone...
be a part of the largest online Christian music community. Browse thousands of guitar tabs and chat w/ musicians like yourself.


It's Free!

Project 86 - Chimes

This tab has not yet been rated for accuracy.Sorry, but you must be logged in to rate this tab.
Click here to log-in, or you can click here to register.
(Registration is free)

All songs owned by corresponding publishing company. If you make copies of any song on this website, be sure to report your usage to CCLI.
Artist: Project 86
Song: Chimes
Album: Drawing Black Lines
Transcribed by: Matthew Cassetta (sk8oncement@aol.com)


This is my by-ear transcription of the song "Chimes".
Ok, Project 86 always uses dropped D tuning, which is just 
regular tuning with the low E string tuned to D.
Randy uses a wah pedal in this song, but I think that 
the verse sounds nice when played using a wah and tremolo effect.
 


Verse (played clean w/ a tremolo effect and wah)
 -> = wah closing,   
  ------>         ------------>
Pt. 1     Pt. 2
E---------|-------------------------------------------| 
B-3-3-3-3-|3-33-3-4-4-4-4-4-4-------------------------| 
G-1-1-1-1-|2-22-1-3-3-3-3-3-3-------------------------| 
D---------|-------------------------------------------| 
A---------|-------------------------------------------| 
D---------|-------------------------------------------| 

Chorus, (played w/ heavy distortion)                                  
E-----------------------------------------------------|
B-----------------------------------------------------|
G-----------------------------------------------------|
D-0-6-0-5---------------------------------------------|
A-0-6-0-5-(X4)----------------------------------------|
D-0-6-0-5---------------------------------------------| 


Bridge 1 (played w/ heavy distortion)                                    
E-----------4-----------------------------------------| 
B-----------X-----------------------------------------| 
G-----------1-----------------------------------------| 
D-0-3-5-0-0-------------------------------------------| 
A-0-3-5-0-0-------------------------------------------| 
D-0-3-5-0-0-------------------------------------------| 

Bridge 2 (played w/ heavy distortion)                               
E-----------------------------------------------------|
B-----------------------------------------------------|
G-7---------------------------------------------------|
D-X-(X4)-6-----5------3-00-3-00-3-0-------------------|
A-5------6(X4)-5-(X4)-3-00-3-00-3-0-------------------|
D--------6-----5------3-00-3-00-3-0-------------------|           
                        





Order:
Verse Pt. 1 (x1)
Verse Pt. 2 (x8)
Chorus (x4)
Verse Pt. 2 (x4)
Chorus (x4)
Bridge 1 (x8)
Bridge 2 (x4)
Bridge 1 (x8)
Chorus (x4)
Verse Pt. 2 (x5)





I always will appreciate feedback, so please tell me if
you have any complaints concerning this tab.

hope this helps you, Matt C.

Comments about this tab

keller - 2005-04-30

can you please tab the bass part?


Add a comment/correction

Complimentary Christian Ringtones
Dadamobile and CGR have teamed up to bring your favorite Christian artists right to your phone. Sign up today and get 10 complementary ringtones!
Tab Country
Did you know CGR has a sister site w/ country guitar tabs? Well we do! Its called Tab Country. It has a great archive with a lot of country tabs.
Rockin Tabs
Are you looking for a site that has rock guitar tabs? Then Rockintabs.com is the place for you. It is a budding site with many rock guitar tabs. Submit your tab today.
Tab Gallery
Tab Gallery has a compilation of christian, rock, and country tabs all in one place. Come visit us.