Guitar Tabs
song title    band name

Join Us Today!

Don't strum alone...
be a part of the largest online Christian music community. Browse thousands of guitar tabs and chat w/ musicians like yourself.


It's Free!

This tab has been rated a 5.00 out of 5 for accuracy. (6 votes)Sorry, but you must be logged in to rate this tab.
Click here to log-in, or you can click here to register.
(Registration is free)

All songs owned by corresponding publishing company. If you make copies of any song on this website, be sure to report your usage to CCLI.
All Things Are Possible
Darlene Zschech

intro
tab by maskio 

--------5-5---5-5-5------------5-5-5---5-5-5-------------------|
--------5-5---5-5-5------------5-5-5---5-5-5-------------------|
------5-5-5---5-5-5---7/9-5h7--5-5-5---5-5-5-9/11-7h9-7h9p5-h7-|
--5h7-------7-------7---------7------7-------------------------|
---------------------------------------------------------------|
---------------------------------------------------------------|
repeat (2x)

--------5-5---5-5-5-------------9--7--5------------------------|
--------5-5---5-5-5-------------9--7--5------------------------|
------5-5-5---5-5-5---7/9-5h7---9--7--5------------------------|
--5h7-------7-------7---------7--------------------------------|
---------------------------------------------------------------|
---------------------------------------------------------------|
just listen to the rhythm... :)  

Comments about this tab

leo03 - 2004-12-01

may i request that you would put an mp3 attachment here wherein you would play it in a slower tempo compared to the cd because i can't really get how to play the latter part. (if it's only possible, thanks!)


maskio - 2008-04-06

i have added a video to the tab, the sound quality of the video is not that good because i just recorded it with my celphone, but thats the sound of my tab... enjoy!

http://www.youtube.com/watch?v=n-qnj5fcbss


Add a comment/correction

Complimentary Christian Ringtones
Dadamobile and CGR have teamed up to bring your favorite Christian artists right to your phone. Sign up today and get 10 complementary ringtones!
Tab Country
Did you know CGR has a sister site w/ country guitar tabs? Well we do! Its called Tab Country. It has a great archive with a lot of country tabs.
Rockin Tabs
Are you looking for a site that has rock guitar tabs? Then Rockintabs.com is the place for you. It is a budding site with many rock guitar tabs. Submit your tab today.
Tab Gallery
Tab Gallery has a compilation of christian, rock, and country tabs all in one place. Come visit us.