Guitar Tabs
song title    band name

Join Us Today!

Don't strum alone...
be a part of the largest online Christian music community. Browse thousands of guitar tabs and chat w/ musicians like yourself.


It's Free!

McRoberts, Justin - After My All

This tab has been rated a 5.00 out of 5 for accuracy. (3 votes)Sorry, but you must be logged in to rate this tab.
Click here to log-in, or you can click here to register.
(Registration is free)

All songs owned by corresponding publishing company. If you make copies of any song on this website, be sure to report your usage to CCLI.
"After My All" by Justin McRoberts
From the album "Father"
Words and music by Justin McRoberts
Copyright  2000 Five Foot Six and a Half Music (ASCAP) / 
5 Minute Walk Music (ASCAP)

Six string acoustic guitar with standard tuning (EADGBE)
4/4 Time; tempo is about 88 beats per minute, but moves freely.

Intro:
 1               2               3               4
|---------------|---------------|----------.----|---------------|
|----1-----3/5-5|---------------|----1-----3---1|---------------|
|--------------0|---------------|----------0---0|---------------|
|--2---2--------|---------------|--2---2-------2|---------------|
|0-------2-----3|---------------|0-------2-----3|---------------|
|---------------|---------------|---------------|---------------|
 1 . 2 . 3 . 4 . 1 . 2 . 3 . 4 . 1 . 2 . 3 . 4 . 1 . 2 . 3 . 4 .

Verse 1:

 5               6               7               8
|---------------|---------------|---------------|---------------|
|----1-----3/5-5|---------------|----1-----3---1|---------------|
|--------------0|---------------|--------------0|---------------|
|--2---2--------|---------------|--2---2-------2|---------------|
|0-------2-----3|---------------|0-------2-----3|---------------|
|---------------|---------------|---------------|---------------|
 1 . 2 . 3 . 4 . 1 . 2 . 3 . 4 . 1 . 2 . 3 . 4 . 1 . 2 . 3 . 4 .

 Sara took off again             Second time this week

 9               10              11              12
|---------------|---------------|---------------|---------------|
|----1-----3/5-5|------6---5---3|--------------2|---------------|
|------2-------0|--------------0|--------------2|---------------|
|--2------------|---------------|---------------|---------------|
|0-------2-----3|------5---3---1|--------------0|---------------|
|---------------|---------------|---------------|---------------|
 1 . 2 . 3 . 4 . 1 . 2 . 3 . 4 . 1 . 2 . 3 . 4 . 1 . 2 . 3 . 4 .

 she calls with 'help me, man' and I'm running to her

 13              14              15              16
|---------------|---------------|---------------|---------------|
|----1-----3/5-5|---------------|----1-----3---1|---------------|
|--------------0|---------------|--------------0|---------------|
|--2---2--------|---------------|--2---2-------2|---------------|
|0-------2-----3|---------------|0-------2-----3|---------------|
|---------------|---------------|---------------|---------------|
 1 . 2 . 3 . 4 . 1 . 2 . 3 . 4 . 1 . 2 . 3 . 4 . 1 . 2 . 3 . 4 .

 And after she comes down          somewhere 'round 3 a.m.

 17              18              19              20      T  T  T
|---------------|---------------|---------------|--------------0|
|----1-----3/5-5|------6---5---3|--------------2|--------2--3---|
|--------------0|--------------0|--------------2|--------2------|
|--2---2--------|---------------|---------------|---------------|
|0-------2-----3|------5---3---1|--------------0|--------0------|
|---------------|---------------|---------------|---------------|
 1 . 2 . 3 . 4 . 1 . 2 . 3 . 4 . 1 . 2 . 3 . 4 . 1 . 2 . 3 . 4 .

 you find me on my knees, looking for some strength a-gain; af-ter my

Chorus:

 21              22      T  T  T 23              24      T  T  T
|1---------.----|--------------0|1---------3----|--------------0|
|3---------1---3|--------2--3---|3---------1---3|--------2--3---|
|----------0---0|--------2------|--------------0|--------2------|
|0--------------|---------------|0--------------|---------------|
|------3--------|--------0------|------3--------|--------0------|
|--------------3|---------------|--------------3|---------------|
 1 . 2 . 3 . 4 . 1 . 2 . 3 . 4 . 1 . 2 . 3 . 4 . 1 . 2 . 3 . 4 .

 All has been run through, I'll give what's left of me to you,know-ing in

 25              26              27              28
|1---------3----|---------------|------3--------|---------------|
|3---------1---3|---------------|----1----------|----1-------3--|
|--------------0|---------------|--2------------|----0-------0--|
|0--------------|---------------|---------------|--2-------0----|
|------3--------|---------------|---------------|3-------2------|
|--------------3|---------------|1--------------|---------------|
 1 . 2 . 3 . 4 . 1 . 2 . 3 . 4 . 1 . 2 . 3 . 4 . 1 . 2 . 3 . 4 .

 Time I'll be renewed and walking again

Verse 2:

 29              30              31              32
|---------------|---------------|---------------|---------------|
|----1-----3/5-5|---------------|----1-----3---1|---------------|
|--------------0|---------------|--------------0|---------------|
|--2---2--------|---------------|--2---2-------2|---------------|
|0-------2-----3|---------------|0-------2-----3|---------------|
|---------------|---------------|---------------|---------------|
 1 . 2 . 3 . 4 . 1 . 2 . 3 . 4 . 1 . 2 . 3 . 4 . 1 . 2 . 3 . 4 .

 Jon's room is 314               mean's dad's in I.C.U.

 33              34              35              36
|---------------|---------------|---------------|---------------|
|----1-----3/5-5|------6---5---3|--------------2|---------------|
|--------------0|--------------0|--------------2|---------------|
|--2---2--------|---------------|---------------|---------------|
|0-------2-----3|------5---3---1|--------------0|---------------|
|---------------|---------------|---------------|---------------|
 1 . 2 . 3 . 4 . 1 . 2 . 3 . 4 . 1 . 2 . 3 . 4 . 1 . 2 . 3 . 4 .

 He'll be there three more days, so I'll be there too with him

 37              38              39              40
|---------------|---------------|---------------|---------------|
|----1-----3/5-5|---------------|----1-----3---1|---------------|
|--------------0|---------------|--------------0|---------------|
|--2---2--------|---------------|--2---2-------2|---------------|
|0-------2-----3|---------------|0-------2-----3|---------------|
|---------------|---------------|---------------|---------------|
 1 . 2 . 3 . 4 . 1 . 2 . 3 . 4 . 1 . 2 . 3 . 4 . 1 . 2 . 3 . 4 .

 And after he is gone            gunshot to solve it all
 
 41              42              43              44      T  T  T
|---------------|---------------|---------------|--------------0|
|----1-----3/5-5|------6---5---3|--------------2|--------2--3---|
|--------------0|--------------0|--------------2|--------2------|
|--2---2--------|---------------|---------------|---------------|
|0-------2-----3|------5---3---1|--------------0|--------0------|
|---------------|---------------|---------------|---------------|
 1 . 2 . 3 . 4 . 1 . 2 . 3 . 4 . 1 . 2 . 3 . 4 . 1 . 2 . 3 . 4 .

 I see my efforts fail, and I hit the wall a-gain;       af-ter my


Chorus (2):

 45              46      T  T  T 47              48      T  T  T
|1---------3----|--------------0|1---------3----|--------------0|
|3---------1---3|--------2--3---|3---------1---3|--------2--3---|
|--------------0|--------2------|--------------0|--------2------|
|0--------------|---------------|0--------------|---------------|
|------3--------|--------0------|------3--------|--------0------|
|--------------3|---------------|--------------3|---------------|
 1 . 2 . 3 . 4 . 1 . 2 . 3 . 4 . 1 . 2 . 3 . 4 . 1 . 2 . 3 . 4 .

 All has been run through, I'll give what's left of me to you,know-ing in

 49              50              51              52
|1---------3----|---------------|------3--------|------0--------|
|3---------1---3|---------------|----1----------|----1----------|
|--------------0|---------------|--2------------|0-2------------|
|0--------------|---------------|---------------|---------------|
|------3--------|---------------|---------------|---------------|
|--------------3|---------------|1--------------|---------------|
 1 . 2 . 3 . 4 . 1 . 2 . 3 . 4 . 1 . 2 . 3 . 4 . 1 . 2 . 3 . 4 .

 Time I'll be renewed and walking again

Bridge:

 53              54              55              56
|---------------|---------------|---------------|---------------|
|----1-------1--|----1---1---3--|----1-------1--|----1---1---3--|
|--0---0---0---0|--0---0-0---0--|--0---0---0---0|--0---0-0---0--|
|---------------|---------------|---------------|---------------|
|3-------2------|0--------------|3-------2------|0--------------|
|---------------|--------1---3--|---------------|--------1---3--|
 1 . 2 . 3 . 4 . 1 . 2 . 3 . 4 . 1 . 2 . 3 . 4 . 1 . 2 . 3 . 4 .

         Teach me to know that I need You simply because Lord I need You

 57              58              59              60
|---------------|---------------|---------------|---------------|
|----1-------1--|----1---1------|3-------1------|0--------------|
|--0---0---0---0|--0---0-0------|0-------0------|0--------------|
|---------------|---------------|---------------|---------------|
|3-------2------|0--------------|---------------|---------------|
|---------------|--------1------|3-------3------|3--------------|
 1 . 2 . 3 . 4 . 1 . 2 . 3 . 4 . 1 . 2 . 3 . 4 . 1 . 2 . 3 . 4 .

         Not 'cuz I'm tired of what I do

Instrumental Interlude:
 61              62              63              64
|---------------|---------------|---------------|---------------|
|----1-----3/5-5|---------------|----1-----3/5-1|---------------|
|--------------0|---------------|--------------0|---------------|
|--2---2--------|---------------|--2---2-------2|---------------|
|0-------2-----3|---------------|0-------2-----3|---------------|
|---------------|---------------|---------------|---------------|
 1 . 2 . 3 . 4 . 1 . 2 . 3 . 4 . 1 . 2 . 3 . 4 . 1 . 2 . 3 . 4 .

 65              66              67              68      T  T  T
|---------------|---------------|---------------|--------------0|
|----1-----3/5-5|------6---5---3|--------------2|--------2--3---|
|--------------0|--------------0|--------------2|--------2------|
|--2---2--------|---------------|---------------|---------------|
|0-------2-----3|------5---3---1|--------------0|--------0------|
|---------------|---------------|---------------|---------------|
 1 . 2 . 3 . 4 . 1 . 2 . 3 . 4 . 1 . 2 . 3 . 4 . 1 . 2 . 3 . 4 .

                                                      so be-fore my

Chorus:

 69              70      T  T  T 71              72      T  T  T
|1---------.----|--------------0|1---------3----|--------------0|
|3---------1---3|--------2--3---|3---------1---3|--------2--3---|
|----------0---0|--------2------|--------------0|--------2------|
|0--------------|---------------|0--------------|---------------|
|------3--------|--------0------|------3--------|--------0------|
|--------------3|---------------|--------------3|---------------|
 1 . 2 . 3 . 4 . 1 . 2 . 3 . 4 . 1 . 2 . 3 . 4 . 1 . 2 . 3 . 4 .

 All has been run through, I'll give the whole of me to you, wait for your

 73              74              75              76
|1---------3----|---------------|------3--------|---------------|
|3---------1---3|---------------|----1----------|------1--------|
|--------------0|---------------|--2------------|----0----------|
|0--------------|---------------|---------------|--2------------|
|------3--------|---------------|---------------|3--------------|
|--------------3|---------------|1--------------|---------------|
 1 . 2 . 3 . 4 . 1 . 2 . 3 . 4 . 1 . 2 . 3 . 4 . 1 . 2 . 3 . 4 .

 Word in all I do, and walk in your strength


Performance notes:

The above is my personal interpretation of this fairly straightforward song.
Some of the notes on the low E string may be fretted by using the thumb of
the left hand over the top of the neck.  Also, the transition from the verse
to the chorus features a quarter note triplet (3 equally spaced notes in the
space of two beats); quarter note triplets have been annotated by placing a
'T' above the tablature staff.  Enjoy!  :o)

Tabbed by klp(at)nb(dot)net

Comments about this tab

No comments/corrections found. Add your own

Complimentary Christian Ringtones
Dadamobile and CGR have teamed up to bring your favorite Christian artists right to your phone. Sign up today and get 10 complementary ringtones!
Tab Country
Did you know CGR has a sister site w/ country guitar tabs? Well we do! Its called Tab Country. It has a great archive with a lot of country tabs.
Rockin Tabs
Are you looking for a site that has rock guitar tabs? Then Rockintabs.com is the place for you. It is a budding site with many rock guitar tabs. Submit your tab today.
Tab Gallery
Tab Gallery has a compilation of christian, rock, and country tabs all in one place. Come visit us.