Guitar Tabs
song title    band name

Join Us Today!

Don't strum alone...
be a part of the largest online Christian music community. Browse thousands of guitar tabs and chat w/ musicians like yourself.


It's Free!

Luti-Kriss - An Act Of My Own Volition

This tab has not yet been rated for accuracy.Sorry, but you must be logged in to rate this tab.
Click here to log-in, or you can click here to register.
(Registration is free)

All songs owned by corresponding publishing company. If you make copies of any song on this website, be sure to report your usage to CCLI.
Luti-Kriss
An Act Of My Own Volition
Album: Throwing Myself
Copyright 2001 Solid State Records

This tab is not guaranteed to be perfect, but itís exact enough for those who
just want to have fun playing one of the best metal songs ever. 

Tuning: drop C, like all Luti-Kriss songs that I know of (C-G-C-F-A-D)
(strings read as standard to avoid confusion)

PART 1
E------------------------
B------------------------
G------------------------
D-2---0-3-0-3---0-2-0----
A-2---0-3-0-3---0-2-0----
E-2---0-3-0-3---0-2-0----

PART 2
E-------------------------------------------------
B-------------------------------------------------
G-10-101010109--9-9-9-9-9--9-9-9-9-10-10101010----
D-------------------------------------------------
A-8--8-8-8-8-7--7-7-7-7-7--7-7-7-7-8--8-8-8-8-----
E-------------------------------------------------

PART 3
E------------------------------------------------
B------------------------------------------------
G-10-101010109--9-9-9-9-9--9-9-9-9-9--9-9-9-9----
D------------------------------------------------
A-8--8-8-8-8-7--7-7-7-7-7--7-7-7-7-7--7-7-7-7----
E------------------------------------------------

PART 4
E---------------------------------------------
B---------------------------------------------
G-10-1010101010-101010109--9-9-9-9-9-----9----
D-8--8-8-8-8-8--8-8-8-8-7--7-7-7-7-7--0--7----
A-8--8-8-8-8-8--8-8-8-8-7--7-7-7-7-7--0--7----
E-8--8-8-8-8-8--8-8-8-8-7--7-7-7-7-7--0--7----

PART 5
E---------------------------
B---------------------------
G-15/16\15--15--15-15-15----
D---------------------------
A-13/14\13--13--13-13-13----
E---------------------------

PART 6
E---------------------
B---------------------
G--------9-9-9-9-9----
D-1--1-1-8-8-8-8-8----
A-1--1-1-7-7-7-7-7----
E-1--1-1--------------

PART 7
E------------------
B------------------
G-10----6-----3----
D------------------
A-8-----4-----1----
E------------------

PART 8
E------------------
B------------------
G-6-----4-----3----
D------------------
A-4-----2-----1----
E------------------

PART 9
E--------------------------------------------------------------------------
B--------------------------------------------------------------------------
G-10-1010101010-10101010-1011-1111111111-11111111-8--8-8-8-8-8--8-8-8-8----
D--------------------------------------------------------------------------
A-8--8-8-8-8-8--8-8-8-8--8/9--9-9-9-9-9--9-9-9-9--6--6-6-6-6-6--6-6-6-6----
E--------------------------------------------------------------------------

PART 9a
E----------------------------------------------------------------------------
B----------------------------------------------------------------------------
G-10-1010101010-10101010-1011-111111111113-13131313-8--8-8-8-8-8--8-8-8-8----
D----------------------------------------------------------------------------
A-8--8-8-8-8-8--8-8-8-8--8/9--9-9-9-9-9/11-11111111-6--6-6-6-6-6--6-6-6-6----
E----------------------------------------------------------------------------

PART 10
E------------------------
B------------------------
G-8888888888888888888----
D------------------------
A-6666666666666666666----
E------------------------

Order of parts:
PART 1 ◊ 6
PART 2 ◊ 1 >
PART 1 ◊ 2 >
PART 2 ◊ 1 >
PART 1 ◊ 2 >note that these areas are not as complex as they seem
PART 2 ◊ 1 >due to the repetition of PART 2 once and PART 1 twice.
PART 1 ◊ 2 >
PART 2 ◊ 1 >
PART 1 ◊ 2 >
PART 3 ◊ 1
PART 2 ◊ 1
PART 4 ◊ 4
PART 1 ◊ 2
PART 2 ◊ 1 >
PART 1 ◊ 2 >
PART 2 ◊ 1 >
PART 1 ◊ 2 >
PART 2 ◊ 1 >
PART 1 ◊ 2 >
PART 3 ◊ 1
PART 4 ◊ 4
PART 5 ◊ 7
PART 6 ◊ 8
PART 1 ◊ 8
PART 5 ◊ 8
PART 7 ◊ 1
PART 8 ◊ 4 
PART 9 ◊ 3
PART 9a◊ 1
PART 9 ◊ 3
PART 9a◊ 1
PART 6 ◊ 16
PART 10◊ 1

Comments about this tab

No comments/corrections found. Add your own

Complimentary Christian Ringtones
Dadamobile and CGR have teamed up to bring your favorite Christian artists right to your phone. Sign up today and get 10 complementary ringtones!
Tab Country
Did you know CGR has a sister site w/ country guitar tabs? Well we do! Its called Tab Country. It has a great archive with a lot of country tabs.
Rockin Tabs
Are you looking for a site that has rock guitar tabs? Then Rockintabs.com is the place for you. It is a budding site with many rock guitar tabs. Submit your tab today.
Tab Gallery
Tab Gallery has a compilation of christian, rock, and country tabs all in one place. Come visit us.