Guitar Tabs
song title    band name

Join Us Today!

Don't strum alone...
be a part of the largest online Christian music community. Browse thousands of guitar tabs and chat w/ musicians like yourself.


It's Free!

Tait - Alibi

This tab has not yet been rated for accuracy.Sorry, but you must be logged in to rate this tab.
Click here to log-in, or you can click here to register.
(Registration is free)

All songs owned by corresponding publishing company. If you make copies of any song on this website, be sure to report your usage to CCLI.
Alibi
Tait

I fixed the tuning and added the rest of the song

Tuning: Db Ab Db Gb Bb eb

INTRO
w/ distortion          
    A        G#       Db       D#     Db    F#       F#add9
eb-----------------------------------------------------
Bb-----------------------------------------------------
Gb--15-15-15-14-14-14-7-7-7-7-7-9-9-9-7-7-7-12-12-12-14
Db--15-15-15-14-14-14-7-7-7-7-7-9-9-9-7-7-7-12-12-12-12
Ab--13-13-13-12-12-12-5-5-5-5-5-7-7-7-5-5-5-10-10-10-10
Db--------------------0-0-0-0-0------------------------
(play 2x, but on the 2nd time through, don't play the add9 on the F#)

VERSE
clean                
    Gadd9     G         C#add9    C#
eb--6-6-6-6-6-3-3-3-3-3-0-0-0-0-0------
Bb--3-3-3-3-3-3-3-3-3-3-5-5-5-5-3-3-3-3
Gb--4-4-4-4-4-4-4-4-4-4-0-0-0-0-0-0-0-0
Db--5-5-5-5-5-5-5-5-5-5-4-4-4-4-4-4-4-4
Ab----------------------5-5-5-5-5-5-5-5
Db-------------------------------------
        I'm trying hard to....
[play 4x,(if you don't like the open Gb, either mute it or find a way to play it
barred on the 2nd fret.  I personally like how it sounds kinda augmented.)]

PRE-CHOR
w/ distortion               
    Bb        Ab        Gb                  Bb        Ab                   
eb-----------------------------------------------------------------------------
Bb-----------------------------------------------------------------------------
Gb--------------------------------------------------------------------------9--
Db--9-9-9-9-9-7-7-7-7-7-5-5-5-5-5-5-5-5-5-5-9-9-9-9-9-7-7-7-7-7-7-7-7-7-7-7-9-7
Ab--9-9-9-9-9-7-7-7-7-7-5-5-5-5-5-5-5-5-5-5-9-9-9-9-9-7-7-7-7-7-7-7-7-7-7-7-7-7
Db--9-9-9-9-9-7-7-7-7-7-5-5-5-5-5-5-5-5-5-5-9-9-9-9-9-7-7-7-7-7-7-7-7-7-7-7-7-7
And you say you love me....
CHORUS
    Gb                  Db                  Gb                  Db
eb-----------------------------------------------------------------------------
Bb-----------------------------------------------------------------------------
Gb----------------------7-7-7-7-7-7-7-7-7-7---------------------7-7-7-7-7-7-7-7
Db--5-5-5-5-5-5-5-5-5-5-7-7-7-7-7-7-7-7-7-7-5-5-5-5-5-5-5-5-5-5-7-7-7-7-7-7-7-7
Ab--5-5-5-5-5-5-5-5-5-5-5-5-5-5-5-5-5-5-5-5-5-5-5-5-5-5-5-5-5-5-5-5-5-5-5-5-5-5
Db--5-5-5-5-5-5-5-5-5-5-0-0-0-0-0-0-0-0-0-0-5-5-5-5-5-5-5-5-5-5-0-0-0-0-0-0-0-0
    I don't need your alibis...
   Gb              Bb              Gb              Db           Ab
eb----------------------------------------------------------------------
Bb----------------------------------------------------------------------
Gb----------------------------------------------------------------------
Db-5-5-5-5-5-5-5-5-9-9-9-9-9-9-9-9-5-5-5-5-5-5-5-5-0-0-0-0-0-0-0-7-7-7-7
Ab-5-5-5-5-5-5-5-5-9-9-9-9-9-9-9-9-5-5-5-5-5-5-5-5-0-0-0-0-0-0-0-7-7-7-7
Db-5-5-5-5-5-5-5-5-9-9-9-9-9-9-9-9-5-5-5-5-5-5-5-5-0-0-0-0-0-0-0-7-7-7-7
    You say you love me and I need you...
INTERLUDE 
  A        G#       Db       
eb--------------------
Bb--------------------
Gb-15-15-15-14-14-14-7
Db-15-15-15-14-14-14-7
Ab-13-13-13-12-12-12-5
Db-------------------0

play VERSE again...this is the lead guitar for the second verse
eb----------------------------------------------------------------------------
Bb-15-----14h15---------15------15-15-14-14-12-12-----------------------------
Gb-------------14\11------------------------------14-14-12-11-11h12p11---11/14
Db----------------------------------------------------------------------------
Ab----------------------------------------------------------------------------
Db----------------------------------------------------------------------------
  Every storm deserves an ending...
play PRE-CHOR

play CHORUS

BRIDGE
   Eb      Gb            Eb      Gb
eb--------------------------------------------
Bb--------------------------------------------      (play 4x, but on the 4th 
Gb--------------------------------------------      time, play this)
Db-2-2-2-2-5-5-5-5-5-5-5-2-2-2-2-5-5-5-5-5-5-5     Db-2-2-2-2-5-5-5-5-5-2-4 5 
Ab-2-2-2-2-5-5-5-5-5-5-5-2-2-2-2-5-5-5-5-5-5-5     Ab-2-2-2-2-5-5-5-5-5-2-4-5 
Db-2-2-2-2-5-5-5-5-5-5-5-2-2-2-2-5-5-5-5-5-5-5     Db-2-2-2-2-5-5-5-5-5-2-4-5
   You dance around like you're a superstar...
PRE-CHOR 2
clean
eb--0--0---------------
Bb--3--3---------------
Gb--2--2--7-7-7-7-6-7-7
Db--4--4--5-5-5-5-5-5-7
Ab--2--0--5-5-5-5-5-5-5
Db--------5-5-5-5-5-5-5
  you say you love me...
(im not quite sure exactly how and what he plays here but this is my best guess)
   Bb7        Bb7/Ab     Ab2
eb--------0---------0------------0-----0
Bb---------3----------3----------------0
Gb-----2----------2----------2-----2---2
Db---4----------4----------2---2-----2-2
Ab-2----------0----------0-------------0
Db--------------------------------------
  You left me so empty...

          well this is all you pretty much need to know, there is one part that
changes a little bit, but i'll let you figure that out.  The rest of the song
is already on this page somewhere up above.  Have fun playing this song and
God Bless! 

Comments about this tab

No comments/corrections found. Add your own

Complimentary Christian Ringtones
Dadamobile and CGR have teamed up to bring your favorite Christian artists right to your phone. Sign up today and get 10 complementary ringtones!
Tab Country
Did you know CGR has a sister site w/ country guitar tabs? Well we do! Its called Tab Country. It has a great archive with a lot of country tabs.
Rockin Tabs
Are you looking for a site that has rock guitar tabs? Then Rockintabs.com is the place for you. It is a budding site with many rock guitar tabs. Submit your tab today.
Tab Gallery
Tab Gallery has a compilation of christian, rock, and country tabs all in one place. Come visit us.