Guitar Tabs
song title    band name

Join Us Today!

Don't strum alone...
be a part of the largest online Christian music community. Browse thousands of guitar tabs and chat w/ musicians like yourself.


It's Free!

P.O.D. - Alive

This tab has been rated a 4.00 out of 5 for accuracy. (2 votes)Sorry, but you must be logged in to rate this tab.
Click here to log-in, or you can click here to register.
(Registration is free)

All songs owned by corresponding publishing company. If you make copies of any song on this website, be sure to report your usage to CCLI.
Song:  Alive
Artist:  P.O.D.
Album:  Satellite
Atlantic Records
Tabbed by:  Steven Johnston   and     Andrew Houston
        (cross-breed@home.com)   (ultimatrix86@home.com)


Tuning:  CGCFAD (tuned down a whole step, then 6th string down another step)




Intro/Verse                                               Chorus
D  :----------------|----------------|----------------|---- ||----------
A  :----------------|----------------|----------------|---- ||----------
F  :----------------|---2-2-5-5-5-5-5|------5-5-5-5---|----*||--5-5-5-5-
C  :2-2-2-0-2----2-2|-2-2-2-5-5-5-5-5|------5-5-5-5-5-|5-5-*||--5-5-5-5-
G  :2-2-2-0-2----2-2|-2-0-0-3-3-3-3-3|------3-3-3-3-5-|5-5- ||--3-3-3-3-
C  :2-2-2-0-2----2-2|-2--------------|--------------5-|5-5- ||----------



D  :--|----------------|----------------|----------------|--------------
A  :--|----------------|----------------|----------------|--------------
F  :5-|5-5-5-----------|----------------|----------------|--------------
C  :5-|5-5-5-2-2-2-2-2-|2-2-2-5-5-5-5-5-|5-5---0--5-5-5-5|--5-4-2-4--2--
G  :3-|3-3-3-2-2-2-2-2-|2-2-2-5-5-5-5-5-|5-5---0--5-5-5-5|-------------5
C  :--|------2-2-2-2-2-|2-2-2-5-5-5-5-5-|5-5---0--5-5-5-5|--------------


Bridge
D  :----------------|---------------- |--14-15-14-14-15-14-14-15-14
A  :----------------|---------------- |----------------------------
F  :----------------|---------------- |----------------------------
C  :--2------5--4---|--2---5---4---(5)|----------------------------
G  :---------------5|------------5----|----------------------------
C  :----------------|-----------------|----------------------------
                                    ^
(Played once second time, listen)
(        for the timing         )

Ending/Outro
D  :14-15-14-14-15|14-14---- ||----------|----------------|--------*2|
A  :--------------|--------- ||----------|----------------|--------*||
F  :--------------|---------*||----------|----------------|-------- ||
C  :--------------|---------*||----2-2-2-|0-2-------0-2-0-|2-0-2--- ||
G  :--------------|--------- ||----2-2-2-|0-2-------0-2-0-|2-0-2--- ||
C  :--------------|--------- ||----2-2-2-|0-2-------0-2-0-|2-0-2--- ||


Rhythms are not exact......Play along with the CD to get the rhythm.

Questions/Comments......Please email

Comments about this tab

No comments/corrections found. Add your own

Complimentary Christian Ringtones
Dadamobile and CGR have teamed up to bring your favorite Christian artists right to your phone. Sign up today and get 10 complementary ringtones!
Tab Country
Did you know CGR has a sister site w/ country guitar tabs? Well we do! Its called Tab Country. It has a great archive with a lot of country tabs.
Rockin Tabs
Are you looking for a site that has rock guitar tabs? Then Rockintabs.com is the place for you. It is a budding site with many rock guitar tabs. Submit your tab today.
Tab Gallery
Tab Gallery has a compilation of christian, rock, and country tabs all in one place. Come visit us.