Guitar Tabs
song title    band name

Join Us Today!

Don't strum alone...
be a part of the largest online Christian music community. Browse thousands of guitar tabs and chat w/ musicians like yourself.


It's Free!

Pillar - Above - Entire Album

This tab has been rated a 3.67 out of 5 for accuracy. (6 votes)Sorry, but you must be logged in to rate this tab.
Click here to log-in, or you can click here to register.
(Registration is free)

All songs owned by corresponding publishing company. If you make copies of any song on this website, be sure to report your usage to CCLI.
-------------------------------------------------------------------------------
					Above - Pillar
-------------------------------------------------------------------------------

By: Walker Walmus (walmusw@hotmail.com)


Content

I.    Key Explanation

II.   Notation (Tab) Explanation

III.  PILLAR - ABOVE Tabs

      Song                          Tuning

      Live For Him                  Standard

      You Should Know               Standard

      Above                         Standard

      Original Superman             Drop - D

      Guess Who\'s One               Drop - D

      Time to Play                  Standard

      Open Up Your Eyes             Drop - D

      Something Real                Standard

      Unity                         Drop - D

      Reaching Out                  Standard

      Galactic Groove               Standard

      All Day Every Day             Drop - D

      Father                        Standard


------------------------------------------------------------------------------
					Key Explanation
------------------------------------------------------------------------------

P.M. - Right Hand Palm Mute

x    - Left Hand Mute/String Noise

< > - Artificial Harmonic

[ ] - Natural Harmonic

p    - Pull off

h    - Hammer on

/    - Slide Up

\    - Slide Down

( )  - Ghost Note

~    - Vibrato

^    - Half Bend 1/2 step

^^   - Full Bend one Step

------------------------------------------------------------------------------
					Tab Explanation
------------------------------------------------------------------------------

e|---------------------------------------------------------------------|
B|---------------------------------------------------------------------|
G|---------------------------------------------------------------------|
D|---------------------------------------------------------------------|
A|---------------------------------------------------------------------|
E|---------------------------------------------------------------------|

The letters correspond to the letter names of the strings the "E" is your 
biggest string (the 6th string) and the "e" is your littlest string (the
1st string)

e|--0------------------------------------------------------------------|
B|--0------------------------------------------------------------------|
G|--2------------------------------------------------------------------|
D|--2------------------------------------------------------------------|
A|--2------------------------------------------------------------------|
E|--0------------------------------------------------------------------|

The numbers on the lines correspond to the fret number 0 is open and 2 is 
the second fret there for this forms an E minor chord.

As far as solos go look at the key for explanation of symbols.

-------------------------------------------------------------------------------
                           Author's Notes
-------------------------------------------------------------------------------
This file would not have been possible with out the help of Darrick Hurst: 
(reciprocity81@hotmail.com) who laid down the basics for a lot of the songs 
here which saved me countless hours of time.  If anyone has any corrections 
or suggestions on how to better represent the music found on Pillar\'s Above 
album please e-mail me, Walker Walmus, at: (walmusw@hotmail.com).  Hope you 
enjoy

-------------------------------------------------------------------------------
				   PILLAR - ABOVE

-------------------------------------------------------------------------------
			     Live for Him - Pillar
-------------------------------------------------------------------------------

Intro/Verse:					End of Verse
e|----------------------------------------------------------|----------------|
B|----------------------------------------------------------|----------------|
G|----------------------------------------------------------|----------------|
D|-4-4-4--4-4------------------------------------4-4-4--4-4-|-2-2--2-2-2-2-2-|
A|-4-4-4--4-4------5-4-0------------------5-4-0--4-4-4--4-4-|-2-2--2-2-2-2-2-|
E|-2-2-2--2-2--0-0-------0-2-3-5-3-2--0-0--------2-2-2--2-2-|-0-0--0-0-0-0-0-|
		  |--------------P.M.--------------|            |-------P.M.-----|
Trick picking on the riff for the -0-0- it is alternate picked (down, up)
and the rest is down picked except for the -5-3-2- which is also alternate
picked

From Verse  Pre-Chorus  Chorus
e|---------|-----------|-----------------------------------------------------|
B|---------|-----------|-----------------------------------------------------|
G|---------|-----------|-------5-------3-------5-----------------------------|
D|-3-3-3/5-|-3-3-3-3/5-|-2-2-x-5-2-2-x-3-2-2-x-5-4-5-------------------------|
A|-3-3-3/5-|-3-3-3-3/5-|-2-2-x-3-2-2-x-1-2-2-x-3-4-5-------------------------|
E|-1-1-1/3-|-1-1-1-1/3-|-0-0-----0-0-----0-0-----2-3-------------------------|

  Bridge
e|----------------------------------------------|----------------------------|
B|----------------------------------------------|----------------------------|
G|--12-12-10-10-9h10-9h10-12-12-10-9-9-9-10-10--|----------------------------|
D|----------------------------------------------|----2-2-2-4-2-2-5-2-2-7-----|
A|----------------------------------------------|----2-2-2-4-2-2-5-2-2-7-----|
E|----------------------------------------------|----0-0-0-2-0-0-3-0-0-5-----|

  Outro
e|---------------------------------------------------------------------------|
B|---------------------------------------------------------------------------|
G|---------------------------------------------------------------------------|
D|--------------------------------------------------------5-5-5-4-4-4--------|
A|-------------------<4>-0-2-4/5\4p0----------------------5-5-5-4-4-4--------|
E|--0-2-3-0-5-5-3-0--------------------0-2-3-0-5-5-3-0----3-3-3-2-2-2--------|
  |-------P.M.------|       |P.M.|	 |--------P.M.-----|

-------------------------------------------------------------------------------
				You Should Know - Pillar
-------------------------------------------------------------------------------

  Verse
e|---------------------------------------------------------------------------|
B|---------------------------------------------------------------------------|
G|-----333-------------------------------------------------------------------|
D|-2-2-333-x-x-----------2-2--2-2-2--2-2-2-----------------------------------|
A|-2-2-111-x-x-2---------2-2--2-2-2--2-2-2-----------------------------------|
E|-0-0-111-x-x-0-3p0-----0-0--0-0-0--0-0-0-----------------------------------|

  Verse Continued
e|---------------------------------------------------------------------------|
B|-8--8--8--8--8--8--8----8------8-------------------------------------------|
G|-10-10-10-10-10-10-10---10^~~~-10^~~~--------------------------------------|
D|---------------------------------------------------------------------------|
A|---------------------------------------------------------------------------|
E|---------------------------------------------------------------------------|

  Chorus						     End Chorus
e|--------------------------------------------|------------------------------|
B|--------------------------------------------|------------------------------|
G|------------6-6-6-6-6-----------------------|------------------------------|
D|--2-2-2-2-2-6-6-6-6-6-6-6-6-6-6-4-4---------|------------------------------|
A|--2-2-2-2-2-4-4-4-4-4-6-6-6-6-6-4-4-2-------|------------------------------|
E|--0-0-0-0-0-----------4-4-4-4-4-2-2-0-3-3-0-|-0-3-4-0--6-4-0--0-3-0-3-4-6--|

  Interlude
e|---------------------------------------------------------------------------|
B|---------------------------------------------------------------------------|
G|---------------------------------------------------------------------------|
D|--------------------------------------5-<7>-5------------------------------|
A|----------------------------------3-5---------5----------------------------|
E|-0-3-4-0--6-4-0--0-3--0-3-4-6-0-4------------------------------------------|

  Break Down
e|---------------------------------------------------------------------------|
B|---------------------------------------------------------------------------|
G|---6---------------6-------------------------------------------------------|
D|-2-6-6-4-4-4-----2-6-6-4---------------------------------------------------|
A|-2-4-6-4-4-4-----2-4-6-4-5-4-0---------------------------------------------|
E|-0---4-2-2-2-3-0-0---4-2-------4-3-0---------------------------------------|

-------------------------------------------------------------------------------
					Above - Pillar
-------------------------------------------------------------------------------

Verse							    Chorus
e|---------7-7-------------------7-7-7-7-5-5-|-------------------------------|
B|-10-10-9-9-9-4-4-7-7---10-10-9-9-9-4-4-6-6-|-------------------------------|
G|-------------4-4-7-7-----------------------|-------------------------------|
D|-------------------------------------------|-------------------------------|
A|-------------------------------------------|-7~--------------------------2-|
E|-------------------------------------------|---5-7-4b5r4-4-4-5-7-4-5-4-2-0-|

Break Down						 Interlude
e|---x-------------------x----------------|----------------------------------|
B|----x-------------------x---------------|----------------------------------|
G|-----x------6------------x------6-------|---------------11~----------------|
D|-4----x--2--6---5-4--4----x--2--6---5-4-|--4h5p4-4hp5h4-----4h5p4-4h5p4----|
A|-4-------2--4---5-4--4-------2--4---5-4-|-------------------------------6--|
E|-2-------0------3-2--2-------0------3-2-|----------------------------------|

-------------------------------------------------------------------------------
				Original Superman - Pillar
-------------------------------------------------------------------------------

Intro/Chorus:
e|---------------------------------------------------------------------------|
B|---------------------------------------------------------------------------|
G|---------------------------------------------------------------------------|
D|-0-0-0h4-5-5-5/7-0-0-0h4-5-5-5/7-0-0-0h4-5-5-5/7-0-0-0h4-5\4\2-------------|
A|-0-0-0h4-5-5-5/7-0-0-0h4-5-5-5/7-0-0-0h4-5-5-5/7-0-0-0h4-5\4\2-------------|
D|-0-0-0h4-5-5-5/7-0-0-0h4-5-5-5/7-0-0-0h4-5-5-5/7-0-0-0h4-5\4\2-------------|

Verse:
e|-5-5-5-5--1-1--3-3--5-5-5-5--1-1--3-3--5-5-5-5--3-3--1-1-------------------|
B|-6-6-6-6--3-3--5-5--6-6-6-6--3-3--5-5--6-6-6-6--4-4--2-2-------------------|
G|-7-7-7-7--3-3--5-5--7-7-7-7--3-3--5-5--7-7-7-7--5-5--3-3-------------------|
D|---------------------------------------------------------------------------|
A|---------------------------------------------------------------------------|
D|---------------------------------------------------------------------------|

Verse 2 Lead (1:36)
e|---------------------------------------------------------------------------|
B|---------------------------------------------------------------------------|
G|-x-x-----7-5--x-x-----7-10~-10-7-------------------------------------------|
D|-x-x-7h9------x-x-7h9------------------------------------------------------|
A|---------------------------------------------------------------------------|
D|---------------------------------------------------------------------------|

  Pre-Chorus
e|---------------------------------------------------------------------------|
B|---------------------------------------------------------------------------|
G|---------------------------------------------------------------------------|
D|-x-x-x--7--5--7--5-5-5-5--5--7/-\------------------------------------------|
A|-x-x-x--7--5--7--5-5-5-5--5--7/-\------------------------------------------|
D|-x-x-x--7--5--7--5-5-5-5--5--7/-\------------------------------------------|

Bridge intro:
e|---------------------------------------------------------------------------|
B|---------------------------------------------------------------------------|
G|---------5-5---------------------------------------------------------------|
D|-0-7-5-7-5-5-0-7-----------------------------------------------------------|
A|-0-7-5-7-3-3-0-7-7-5p0-5-0-2-3---------------------------------------------|
D|-0-7-5-7-----0-7-7-5p0-5-0-2-3---------------------------------------------|
			|----P.M.---|
Bridge
e|---------------------------------------------------------------------------|
B|---------------------------------------------------------------------------|
G|---7\555-5\4-444-------7\533-3\4-444-------7\555-5\4-444-------------------|
D|-0-7\555-5\4-444-5-3-0-7\533-3\4-444-5-3-0-7\555-5\4-444-5-3---------------|
A|-0-5\333-3\2-222-5-3-0-5\333-3\2-222-5-3-0-5\333-3\2-222-5-3---------------|
D|-0---------------5-3-0---------------5-3-0---------------5-3---------------|

e|---------------------------------------------------------------------------|
B|---------------------------------------------------------------------------|
G|---7-5---------------------------------------------------------------------|
D|-0-7-5-2-3-0-5-0-2-3-0-----------------------------------------------------|
A|-0-5-3-2-3-0-5-0-2-3-0-----------------------------------------------------|
D|-0-----2-3-0-5-0-2-3-0-----------------------------------------------------|

Outro
e|---------------------------------------------------------------------------|
B|---------------------------------------------------------------------------|
G|--7-7-7-7\5-5-5\4x4\5--7-7-7-7\5-5-5\4---[7]-----[7]-----------------------|
D|--x-x-x-x\x-x-x\xxx\x--x-x-x-x\x-x-x\x-[7]-[7]-[7]-[7]---------------------|
A|--5-5-5-5\3-3-3\2x2/3--5-5-5-5\3-3-3\2-------------------------------------|
D|---------------------------------------------------------------------------|

------------------------------------------------------------------------------
				Guess Who's Won - Drop-D Tuning
------------------------------------------------------------------------------

Intro:
e|---------------------|---------------|--------------------------------------|
B|---------------------|---------------|--------------------------------------|
G|---------------------|---------------|--------------------------------------|
D|-------------3-------|---------3-4-5-|-------------3------------------------|
A|---3-5-3-3h5-----3h5-|---3-5---3-4-5-|---3-5---3h5-----3h5------------------|
D|-0-------------0-----|-0-----0-3-4-5-|-0-----0-------0-----0----------------|

Rest of the song:
e|---------------------|------------------------------------------------------|
B|---------------------|------------------------------------------------------|
G|---------------------|------------------------------------------------------|
D|-------------3-------|---------3-4-5----------------------------------------|
A|---3-5-3-3h5-----3h5-|---3-5---3-4-5----------------------------------------|
D|-0-------------0-----|-0-----0-3-4-5----------------------------------------|

e|----------------------------------------------------------------------------|
B|----------------------------------------------------------------------------|
G|---------------------|------------------------------------------------------|
D|-------------3-------|--------<5>p3---3-------------------------------------|
A|---3-5---3h5-----3h5-|---3-5--------5-----3h5-------------------------------|
D|-0-----0-------0-----|-0-----0----------0-----------------------------------|

-------------------------------------------------------------------------------
				Time to Play - Pillar
-------------------------------------------------------------------------------

  Intro/Verse
e|---------------------------------------------------------------------------|
B|---------------------------------------------------------------------------|
G|---------------------------------------------------------------------------|
D|---------------------------------------------------------------------------|
A|---------------------------------------------------------------------------|
E|-0-5-6-0-5-0-5-0-5-6-0-5-0-3~~---------------------------------------------|

e|--------------------|------------------------------------------------------|
B|--------------------|------------------------------------------------------|
G|------------5-6-----|------------------------------------------------------|
D|--7-7-7-7-5-5-6-5-5-|--------2---------------------------------------------|
A|--7-7-7-7-5-3-4-5-5-|--------2---------------------------------------------|
E|--5-5-5-5-3-----3-3-|-(X7)---0---------------------------------------------|

  Bridge
e|---------------------------------------------------------------------------|
B|---------------------------------------------------------------------------|
G|---------------------------------------------------------------------------|
D|-7-8-9-10-11-12------------------------------------------------------------|
A|-7-8-9-10-11-12------------------------------------------------------------|
E|-5-6-7-8--9--10------------------------------------------------------------|

  Verse Variation
e|---------------------------------------------------------------------------|
B|---------------------------------------------------------------------------|
G|---------------------------------------------------------------------------|
D|-7-7-9-9-7~~-7-7-9-7-7-9---------------------------------------------------|
A|---------------------------------------------------------------------------|
E|---------------------------------------------------------------------------|

  Outro
e|-------------------------|-------------------------------------------------|
B|-------------------------|-------------------------------------------------|
G|-------------------------|-------------------------------------------------|
D|-7-7-7-7-7--5-5-5-5--5-2-|-7-8-9-12-11-12----------------------------------|
A|-7-7-7-7-7--5-5-5-5--5-2-|-x-x-x-x--x--x-----------------------------------|
E|-5-5-5-5-5--3-3-3-3--3-0-|-5-6-7-8--9--10----------------------------------|

-------------------------------------------------------------------------------
			 Open Up You Eyes - Pillar
-------------------------------------------------------------------------------

  Verse		     Chorus
e|--------------------|------------------------------------------------------|
B|--------------------|------------------------------------------------------|
G|--------------------|------------------------------------------------------|
D|-0h1p0-0-0h1-0-0h1p0|-5-5-5-5-5-7-3-3-3------------------------------------|
A|-0h1p0-0-0h1-0-0h1p0|-5-5-5-5-5-7-3-3-3------------------------------------|
D|-0h1p0-0-0h1-0-0h1p0|-5-5-5-5-5-7-3-3-3------------------------------------|


In Between Chorus and Verse	    Bridge:           End
e|-------------------------------|-----------------|-------------------------|
B|-------------------------------|-----------------|-------------------------|
G|-------------------------------|-----------------|-------------------------|
D|-------------------------------|-1-0-1-x-x-1-0-1-|-1-0-2-0-3-0-------------|
A|-[7]-[7]---[7]-[7]---[7]-[7]---|-1-0-1-x-x-1-0-1-|-1-0-2-0-3-0-------------|
D|--------[7]-------[7]------[7]-|-1-0-1-x-x-1-0-1-|-1-0-2-0-3-0-------------|
For bridge use distortion the last time through

-------------------------------------------------------------------------------
				Something Real - Pillar
-------------------------------------------------------------------------------

  Intro/Chorus:
e|---------------------------------------------------------------------------|
B|---------------------------------------------------------------------------|
G|---------------------------------------------------------------------------|
D|-----------------3h4-3h4---------------------------------------------------|
A|-3h5-3h5-3h5-3h5-------------3h5-3h5-3h5-3h5-------------------------------|
E|---------------------------------------------4\3\1~------------------------|

  Verse:
e|-4/5-5-5--4-5x5x5/7-7-7--7-5x5x--------------------------------------------|
B|-4/5-5-5--4-5x5x5/7-7-7--7-5x5x--------------------------------------------|
G|-4/5-5-5--4-5x5x5/7-7-7--7-5x5x--------------------------------------------|
D|---------------------------------------------------------------------------|
A|---------------------------------------------------------------------------|
E|---------------------------------------------------------------------------|

  Break It Down		Bridge		Variation
e|---------------------|-----------------|-----------------------------------|
B|---------------------|-----------------|-----------------------------------|
G|---------------------|-----------------|-----------------------------------|
D|---------------------|-----------------|---7-5-----------------------------|
A|-3-555-35-35-35-3555-|-0-0-3-5-5-5-3---|-0-----7-0-3/5---------------------|
E|---------------------|---------------4-|-----------------------------------|

-------------------------------------------------------------------------------
				Reaching Out- Pillar
-------------------------------------------------------------------------------

e|-5/7-7-7-7-x7x7-7-7-5/7-7-7-7-x5x5-5-5-5-----------------------------------|
B|-5/7-7-7-7-x7x7-7-7-5/7-7-7-7-x5x5-5-5-5-----------------------------------|
G|---------------------------------------------------------------------------|
D|---------------------------------------------------------------------------|
A|---------------------------------------------------------------------------|
E|---------------------------------------------------------------------------|

e|-7----7-7-7-7-7-7-5----5-5-5-5-5-5-3--3--2-2-------------------------------|
B|-7-h9-9-9-7-7-7-7-5-h7-7-7-5-5-5-5-4--3--2---2-----------------------------|
G|-7----7-7---------5----5-5---------3--3--2-----2---------------------------|
D|-7-h9-9-9---------5-h7-7-6---------5--5--4-------4-------------------------|
A|-7----7-7---------5----5-5---------3---------------------------------------|
E|---------------------------------------------------------------------------|

  Solo 1(Using the D major scale)
e|---------------------------------------------------------------------------|
B|-14~-14-15-15-15-17-15-14-14h15p14-14--14-15-------------------------------|
G|---------------------------------------------16^^-14-14-12/14-14-16-16^-14-|
D|---------------------------------------------------------------------------|
A|---------------------------------------------------------------------------|
E|---------------------------------------------------------------------------|

e|---------------------------------------------------------------------------|
B|-14~-14-15-15-15-17-15-14-14h15p14-14--17-15-14-15-14----------------------|
G|------------------------------------------------------14h16p14-14-12-14----|
D|---------------------------------------------------------------------------|
A|---------------------------------------------------------------------------|
E|---------------------------------------------------------------------------|

e|---------------------------------------------------------------------------|
B|---------------------------------------------------------------------------|
G|-------------------------12-12-14-14^^-14^^r12h14p12-12h14p12-12-12-12-----|
D|-12-12/14\\12/14\\12/14-14---------------------------------------------------|
A|---------------------------------------------------------------------------|
E|---------------------------------------------------------------------------|

  Bridge
e|---------------------------------------------------------------------------|
B|---------------------------------------------------------------------------|
G|------------------------------------------------------------(7)------------|
D|-4-4-x-x-7-7-x-x-9-9-x-x-7-7-4-4--4-4-x-x-7-7-x-x-9-9-x-x---(7)------------|
A|-4-4-x-x-7-7-x-x-9-9-x-x-7-7-4-4--4-4-x-x-7-7-x-x-9-9-x-x---(5)------------|
E|-2-2-x-x-5-5-x-x-7-7-x-x-5-5-2-2--2-2-x-x-5-5-x-x-7-7-x-x------------------|

  Bridge Lick
e|---------------------------------------------------------------------------|
B|-----14-----14-14-14h15p14-------------------------------------------------|
G|-16^----16^----------------14-12-------------------------------------------|
D|---------------------------------------------------------------------------|
A|---------------------------------------------------------------------------|
E|---------------------------------------------------------------------------|

  Solo 2
e|---------------------------------------------------------------------------|
B|-14-14-15-15-15-17-15-14-14h15p14-14---------------------------------------|
G|---------------------------------------------------------------------------|
D|---------------------------------------------------------------------------|
A|---------------------------------------------------------------------------|
E|---------------------------------------------------------------------------|

Last Not
e|--------------------------------------------------|------------------------|
B|---17-15-14-14-15-17-15-14-15---------------------|----14------------------|
G|-x----------------------------16\14\12\11^\9------|------------------------|
D|--------------------------------------------------|------------------------|
A|--------------------------------------------------|------------------------|
E|--------------------------------------------------|------------------------|

-------------------------------------------------------------------------------
					Unity - Pillar
-------------------------------------------------------------------------------

Verse 1/Intro (Clean)
e|----------------------------------------------------------------------------|
B|----------------------------------------------------------------------------|
G|----------------------------------------------------------------------------|
D|----------------------------------------------------------------------------|
A|-0-0-5p0-0-0-5p0---3p0---2p0-3~---------------------------------------------|
D|-0-0-----0-0-----x-----0----------------------------------------------------|

Verse Build Up - (Palm Mute all/Distortion Kicks in)
e|----------------------------------------------------------------------------|
B|----------------------------------------------------------------------------|
G|----------------------------------------------------------------------------|
D|----------------------------------------------------------------------------|
A|-0-0-7-7-0-0-7-7--0-0-8-8-0-0-8-8--0-0-11-11--0-0-11-11-0-0-12-12-0-0-12-12-|
D|-0-0-7-7-0-0-7-7--0-0-8-8-0-0-8-8--0-0-11-11--0-0-11-11-0-0-12-12-0-0-12-12-|

Pre-Chorus				  Chorus
e|-----------------------------|----------------------------------------------|
B|-----------------------------|----------------------------------------------|
G|-----------------------------|----------------------------------------------|
D|-----------------------------|----------------------------------------------|
A|-0-0-5-5-0-0-5-5-0-2-0-2-3---|----------------------------------------------|
D|-0-0-5-5-0-0-5-5-0-2-0-2-3---|--0-5-0-5-0-0-2~p0-2~p0-3~--------------------|

Other Verses  (Distorted)
e|----------------------------------------------------------------------------|
B|----------------------------------------------------------------------------|
G|----------------------------------------------------------------------------|
D|----------------------------------------------------------------------------|
A|-----5p0-----5p0---3p0-----2p0-3~-------------------------------------------|
D|-0-0-----0-0-------------0--------------------------------------------------|

Solo - 2:42
e|----------------------------------------------------------------------------|
B|-/14-12------------14-12----------------12-------15-17-15-------------------|
G|--------14--11h12~-------14-12-11h12-14----14--x----------16-14-------------|
D|----------------------------------------------x-------------------11-12-14--|
A|----------------------------------------------------------------12----------|
D|----------------------------------------------------------------------------|

e|----------------------------------------------------------------------------|
B|--------14-12----------------12---------------------------------------------|
G|12-14---------14-12-11h12-14----14-------------14-12-16-14-12h14------------|
D|-----------------------------------------14-12------------------------------|
A|-----------------------------------12-14------------------------------------|
D|----------------------------------------------------------------------------|

Bridge
e|------------------------------------|---------------------------------------|
B|------------------------------------|---------------------------------------|
G|------------------------0-----------|---------------------------------------|
D|---------------------0--0-----------|---------------------------------------|
A|-5-5-5-x5x-5-5-5-x5x-0--0-----------|---------------------------------------|
D|-5-5-5-x5x-5-5-5-x5x-0----0h2~h3~p0-|--0-5-0-5-0-2-0-2-0-3~-----------------|

Outro
e|----------------------------------------------------------------------------|
B|----------------------------------------------------------------------------|
G|----------------------------------------------------------------------------|
D|----------------------------------------------------------------------------|
A|-0-0-0--0-5-5--0-7-7--0-8-8--0-11-11----------------------------------------|
D|-0-0-0--0-5-5--0-7-7--0-8-8--0-11-11----------------------------------------|

-------------------------------------------------------------------------------
				Galactic Groove - Pillar
-------------------------------------------------------------------------------

				(0:32)		Beginning of end Solo
e|-/12-12-12-12-11-12-------------------------------|------------------------|
B|-/12-12-12-12-11-12-------------------------------|------------------------|
G|-/12-12-12-12-11-12-----12\11-9-7-9-11-12-11-12---|--7h9-7h9-/12-----------|
D|--------------------------------------------------|------------------------|
A|--------------------------------------------------|------------------------|
E|--------------------------------------------------|------------------------|

Solo and adlibs played in D Major Scale (Below) primaraly on the G string
e|---5---7---9-10----12----14-15----17---------------------------------------|
B|---5---7-8---10----12----14-15----17---------------------------------------|
G|-4---6-7---9----11-12----14----16------------------------------------------|
D|-4-5---7---9----11-12----14----16-17---------------------------------------|
A|-4-5---7---9-10----12----14----16-17---------------------------------------|
E|---5---7---9-10----12----14-15----17---------------------------------------|

Enjoy writing your own solos for this one it is a great song to jam.

-------------------------------------------------------------------------------
				All Day Everyday - Pillar
-------------------------------------------------------------------------------

Intro/Verse: 							  Chorus
e|-12-12------------------------12-12------------------|---------------------|
B|-------10-10-13-13-11-11/(13)-------10-10-13-13\(10)-|---------------------|
G|-----------------------------------------------------|---------------------|
D|-----------------------------------------------------|-0-2-1-0-2-1-0-0-0---|
A|-----------------------------------------------------|-0-2-1-0-2-1-0-0-0---|
D|-----------------------------------------------------|-0-2-1-0-2-1-0-0-0---|

  Interlude (1:19)	    (1:29)
e|-----------------|---------------------------------------------------------|
B|-----------------|---------10-10--13-13--11-11-11-11--11p10----------------|
G|-----------------|---------------------------------------------------------|
D|------(0~)-------|---------------------------------------------------------|
A|------(0~)-------|---------------------------------------------------------|
D|------(0~)-------|---------------------------------------------------------|

  Bridge (1:39)				   Break Down Chorus (1:59)
e|------------------------------------|--------------------------------------|
B|------------------------------------|--------------------------------------|
G|------------------------------------|--------------------------------------|
D|-----------------------------3-3----|-0--2--1--0--2--1--0----0--0--0--0----|
A|----------------5-5-5-------------5-|-0--2--1--0--2--1--0----0--0--0--0----|
D|--0-0-0--6-6-6---------6-6-6--------|-0--2--1--0--2--1--0----0--0--0--0----|
   |-----------P.M.-----------|

  Break Down (2:19)
e|-----------------|-----------------|-----------------|---------------------|
B|-----------------|-----------------|-----------------|---------------------|
G|-----------------|-----------------|-----------------|---------------------|
D|-0-0-0-0-0-0-0-0-|-0-0-0-0-0-0-0-0-|-0-0-0-0-0-0-0-0-|-0-0-0-0-0-0---------|
A|-0-0-0-0-0-0-0-0-|-0-0-0-0-0-0-0-0-|-0-0-0-0-0-0-0-0-|-0-0-0-0-0-0---------|
D|-0-0-0-0-0-0-0-0-|-0-0-0-0-0-0-0-0-|-0-0-0-0-0-0-0-0-|-0-0-0-0-0-0---------|

  Break Down Riff (2:28)
e|-------------------------------|-------------------------------------------|
B|-------------------------------|-------------------------------------------|
G|-------------------------------|-------------------------------------------|
D|-0--6-6---0--6-6---0--6--0-0-0-|-0--6-6---0--6-6---0--6--0-0-0-------------|
A|-0--6-6---0--6-6---0--6--5-5-5-|-0--6-6---0--6-6---0--6--6-6-6-------------|
D|-0--6-6---0--6-6---0--6--0-0-0-|-0--6-6---0--6-6---0--6--0-0-0-------------|

  Outro Riff (2:46)
e|---------------------------------------------------------------------------|
B|---------------------------------------------------------------------------|
G|---------------------------------------------------------------------------|
D|----------------0--0--0--0-------------------------------------------------|
A|-0h1p0---0h1p0--0--0--0--0-------------------------------------------------|
D|----------------0--0--0--0-------------------------------------------------|

-----------------------------------------------------------------------------
					Father - Pillar
-----------------------------------------------------------------------------

Verse:
C#m A

Pre-Chorus:
B A

Acoustic Chorus:
E C#m A B

Electric Chorus / Backing for Solo: E F# A

  Solo
e|----------------------------------------------------------------------------|
B|----------------------------------------------------------------------------|
G|----------------------------------------------------------------------------|
D|-------12----14~--------12----12-14/16-14------------12----12-14/16-14------|
A|-12h14----14------12h14----14-------------14~--12-14----14-------------14~--|
E|----------------------------------------------------------------------------|

e|----------------------------------------------------------------------------|
B|-------------------------------------15-17-15-15-17-17-19-17-17-x-x-17-19---|
G|-------------------------------15-17----------------------------------------|
D|-------12----14/16-------14-16----------------------------------------------|
A|-12-14----14-------14-16----------------------------------------------------|
E|----------------------------------------------------------------------------|

e|----------------------------------------------------------------------------|
B|-17-17-19p17p(15)-15-17-15-------------------------14----14-14-14-14/16xx---|
G|---------------------------16-16-16-14-14h16-14-16----16-----------------14~|
D|----------------------------------------------------------------------------|
A|----------------------------------------------------------------------------|
E|----------------------------------------------------------------------------|

Comments about this tab

I Rock 4 Christ - 2006-06-30

WOW!!! this is amazing!!! i wish i had time to sit down and tab out a whole album!!! congrats. and the songs are pretty accurate too. there are mistakes here and there, but for the most part good on ya.


Add a comment/correction

Complimentary Christian Ringtones
Dadamobile and CGR have teamed up to bring your favorite Christian artists right to your phone. Sign up today and get 10 complementary ringtones!
Tab Country
Did you know CGR has a sister site w/ country guitar tabs? Well we do! Its called Tab Country. It has a great archive with a lot of country tabs.
Rockin Tabs
Are you looking for a site that has rock guitar tabs? Then Rockintabs.com is the place for you. It is a budding site with many rock guitar tabs. Submit your tab today.
Tab Gallery
Tab Gallery has a compilation of christian, rock, and country tabs all in one place. Come visit us.