Guitar Tabs
song title    band name

Join Us Today!

Don't strum alone...
be a part of the largest online Christian music community. Browse thousands of guitar tabs and chat w/ musicians like yourself.


It's Free!

This tab has been rated a 4.00 out of 5 for accuracy. (1 vote)Sorry, but you must be logged in to rate this tab.
Click here to log-in, or you can click here to register.
(Registration is free)

All songs owned by corresponding publishing company. If you make copies of any song on this website, be sure to report your usage to CCLI.
Ark of Suffering

by: Tourniquet
tabbed by: Jesse Palmer A.K.A. StageDvr@aol.com

A very cool song, by a very cool band. I think there are three guitars
in the song all together so tune your guitar(s) down half a step.
And remember lots and lots of xxXXDISTORTIONXXxx and GRUNT
listen to the song first though
I don't think this is tabbed yet so here it goes...
The intro is a fast metal riff:
eb--|--------------|---------------|--------------|--------------|
Bb--|--------------|---------------|--------------|--------------|
Gb--|--------------|---------------|--------------|--------------|
Db--|-8--7---8--7--|-7--5---5--4---|-8--7---8--7--|-7--5---5--4-2|
Ab--|-8--7---8--7--|-7--5---5--4---|-8--7---8--7--|-7--5---5--4-2|
Eb-0|-6--5-0-6--5-0|-5--3-0-3--2-0-|-6--5-0-6--5-0|-5--3-0-3--2-0|
=0D
eb|--------------|--------------|
Bb|--------------|--------------|
Gb|--------------|--------------|
Db|--------2-2-2-|------2------2|
Ab|--------2-2-2-|------2------2|
Eb|--------0-0-0-|------0------0|
=0D
This is the opening verse riff and it is played throughout the first
vers=
e.
A little bit slower.
Riff A (Guitar 1)
eb--|------------|------------|------------|------------|
Bb--|------------|------------|------------|------------|
Gb--|------------|------------|------------|------------|
Db--|-2-------2-1|-0----------|---------5--|-4----------|
Ab--|------------|---------1-3|-2---------7|-------5\x--|
Eb-0|---0-0-0----|---0-0-0----|---0-0-0----|---0-0-----0|
                                                    =

eb|------------|------------|------------|------------|--|
Bb|------------|------------|------------|------------|--|
Gb|------------|------------|------------|------------|-9|
Db|------------|------------|---------2--|-1-----3----|-9|
Ab|-2-------5-0|-2-------1-3|-2---------3|---2---3----|-7|
Eb|---0-0-0----|---0-0-0----|---0-0-0----|-----0-1---0|--|
                               Guitar 2 comes in here^ =

Play riff again with both guitars =

Verse 1 with Riff A twice (both guitars)
(even slower)w/Riff B

Riff B
eb|-----------|--------------|------------|----------------|-|
Bb|-----------|--------------|------------|----------------|-|
Gb|-----------|--------------|------------|----------------|-|
Db|-----------|--------------|------------|----------------|-|
Ab|2----6--6/8|--7-----------|------------|--------4---5---|2|
Eb|0----------|------7--8/10-|8---8\3--5/7|-5---3--2---3---|0|
Repeat
=0D
w/Riff C

=0D
Riff C
eb|------------|-------------|------------|-------------|
Bb|------------|-------------|------------|-------------|
Gb|-9----8--8--|9----11---11-|12----12----|11---11\8--8\|
Db|------------|-------------|------------|-------------|
Ab|-7----6--6--|7-----9-----9|10----10----|-9----9\6--6\|
Eb|------------|-------------|------------|-------------|
=0D
Verse 2 w/Riff A twice
=0D
w/Riff B
=0D
Then a solo
Play riff D 4 times
Riff D
eb|------------|------------|-----------|------------|
Bb|------------|------------|-----------|------------|
Gb|------------|------------|-----------|------------|
Db|------------|------------|-0---------|-3-2--------|
Ab|-7-------2-3|-6-------2-3|--------2-3|-----3-2-1-2|
Eb|---0-0-0----|---0-0-0----|---0-0-0---|------------|
=0D
eb|------------|------------|-----------|------------|
Bb|------------|------------|-----------|------------|
Gb|------------|------------|-----------|------------|
Db|------------|------------|-0---------|-----------0|
Ab|-7-------2-3|-6-------2-3|--------2-3|-----0-1-2--|
Eb|---0-0-0----|---0-0-0----|---0-0-0---|-0-3--------|
=0D
Then another solo
=0D
Riff E
eb|----------------|----------------|-----------------|
Bb|----------------|----------------|-----------------|
Gb|---------4------|---------4------|----------4------|
Db|-2-2-4/5---5/7\4|-0-0-4/5---5/7\4|------4/5---5/7\4|
Ab|----------------|----------------|-3-33------------|
Eb|----------------|----------------|-----------------|
=0D
eb|----------------|
Bb|----------------|
Gb|---------4------|
Db|-2-2-4/5---5/7\4|
Ab|----------------|
Eb|----------------|
=0D
Riff F w/Riff E =

eb|----------------|----------------|-----------------|
Bb|---------5------|---------5------|----------5------|
Gb|-0-0-4/5---5/7\4|-----4/5---5/7\4|------4/5---5/7\4|
Db|----------------|-4-4------------|-2-22------------|
Ab|----------------|----------------|-----------------|
Eb|----------------|----------------|-----------------|
=0D
eb|----------------|
Bb|---------5------|
Gb|-0-0-4/5---5/7\4|
Db|----------------|
Ab|----------------|
Eb|----------------|
=0D
Play Riffs E and F
=0D

=0D
Riff G
eb|7---------------|
Bb|--8-7-----------|
Gb|------8-9-------|
Db|----------9-10-7|
Ab|----------------|
Eb|----------------|
=0D
Riff H
eb|----------------|
Bb|8-7-------------|
Gb|----9-8-9-------|
Db|----------9-10-7|
Ab|----------------|
Eb|----------------|
=0D
Play Riff C w/Riff G 4 times then play Riff H 4 times
=0D
Riff I Guitar 3
eb|------------|----------------|
Bb|------------|-5--------------|
Gb|-4--------2-|-4--4\2--5\0--2-|
Db|-2-----4--1-|--------------4-|
Ab|----2--2----|----------------|
Eb|----0-------|----------------|
=0D
Ending Riff Guitars 1 and 2
eb|-----------------|--|
Bb|-----------------|--|
Gb|-----8-9-10-9-8-9|-9|
Db|-8-9-1-2-3--2-1-2|--|
Ab|-1-2-------------|-2|
Eb|-----------------|-0|
=0D
And thats the song, kinda. This is my first tab so please feel free to
E-mail me at StageDvr@aol.com and tell me if this is crap or cool.

Comments about this tab

No comments/corrections found. Add your own

Complimentary Christian Ringtones
Dadamobile and CGR have teamed up to bring your favorite Christian artists right to your phone. Sign up today and get 10 complementary ringtones!
Tab Country
Did you know CGR has a sister site w/ country guitar tabs? Well we do! Its called Tab Country. It has a great archive with a lot of country tabs.
Rockin Tabs
Are you looking for a site that has rock guitar tabs? Then Rockintabs.com is the place for you. It is a budding site with many rock guitar tabs. Submit your tab today.
Tab Gallery
Tab Gallery has a compilation of christian, rock, and country tabs all in one place. Come visit us.