Guitar Tabs
song title    band name

Join Us Today!

Don't strum alone...
be a part of the largest online Christian music community. Browse thousands of guitar tabs and chat w/ musicians like yourself.


It's Free!

Smalltown Poets - Anything Genuine

This tab has been rated a 5.00 out of 5 for accuracy. (1 vote)Sorry, but you must be logged in to rate this tab.
Click here to log-in, or you can click here to register.
(Registration is free)

All songs owned by corresponding publishing company. If you make copies of any song on this website, be sure to report your usage to CCLI.
Title:    Anything Genuine
Artist:   Smalltown Poets
Album:    Wow '99
Copyright 1998 Koala Music / Smalltown Poetry / ASCAP
from: Casey L. Pettitt 

Intro:
E------------------------5---5---3----|--------------------------5--|
B------3---3-----3--------------------|------3---3-----3-------3----|
G----2---2---2-----2---0---0---0---0--|----2---2---2-----2---0------|
D--0-----------2-----0----------------|--0-----------2-----0--------|
A-------------------------------------|-----------------------------|
E-------------------------------------|-----------------------------|

Riff 1                         Riff 2
E------------------|          |------------------------------|
B---------------3--|          |---------------3----3--0-0----|
G-------------0----|          |-------------0------0--0-0-2--|
D--0-0-0-0h2-------|          |--0-0-0-0h2-------------------|
A------------------|          |------------------------------|
E------------------|          |------------------------------|


Verse 1:
Riff 1
Test this gold for its worth is the same as testing me
Riff 1                        Riff 2
And the fire burns easily today
Riff 1
The net is the good that is left after the metal is refined
Riff 1
As I melt, look at what I've got and
A
Seperate it all from what I need

Chorus 1:
Bm          D                  A
  I'll take anything, anything genuine
Bm              D            E
Looking up from where I went I could take whatever I get
Bm          D                  A        Bm - C
  I'll take anything, anything genuine

play intro 1x

Verse 2:
Riff 2
More interesting is my faith than the fear of what I'll miss
Riff 2                              Riff 1
And those things are temporary anyway
Riff 2
Still on this side getting fit for a faith that's been tried
Riff 2
And I smile more believably while
A
Getting just enough to know I need

Chorus 2:
Bm          D                  A
  I'll take anything, anything genuine
Bm              D             E
Looking up from where I went, I could take whatever I get
Bm        D                          A
  Falling from Your hands or falling from Your lips
Bm                   D                E
As long as it's from You, I know that I can take it, I can take it

Bridge:
Guitar 1   G2 - D - Bm - G2 - D - A            G2 - D - Bm - G2 - D - A
                                   And I'll rejoice
Guitar 2
E-----------------------------|
B--10--7--6------10--7--6--5--|
G---x--x--x--7----x--x--x--x--|  x2
D---7--5--4--x----7--5--4--2--|  
A------------5----------------|
E-----------------------------|

Channel:
E----------------------------|-----------------------|
B------3---3-----3----3------|------3--------3--/10--|
G----2---2---2-----2----2-2--|----2---2---0----------|   short
D--0-----------2-------------|--0-------2------------|   pause
A----------------------------|-----------------------|
E----------------------------|-----------------------|

Guitar Solo:
E-----------------------------------------------------------------------
B-----------------------------------------------------------------15----
G------11---11---11--11/12\11---9-9h11p9--11-9-11/12\11---11--/14-------
D--9-9----9----9----------------------------------------9---------------
A-----------------------------------------------------------------------
E-----------------------------------------------------------------------

E------------------------------------------|
B-----15----15--17-17-17-17-17-17-17-17----|
G--14----14--------------------------------|
D------------------------------------------|
A------------------------------------------|
E------------------------------------------|

Chorus 2:
Bm          D                  A
  I'll take anything, anything genuine
Bm              D             E
Looking up from where I went, I could take whatever I get
Bm        D                          A
  Falling from Your hands or falling from Your lips
Bm                   D                E
As long as it's from You, I know that I can take whatever I get

Bridge

Outro:
E---------------------5--
B------3---3-----3----3--
G----2---2---2-----0--0--
D--0-----------2------0--
A---------------------x--
E---------------------3--

The chord G2 is, from low to high, 3x0035. It can also be played as 3x0005.
Listen to the song for rhythms and chord changes. This song is also featured
on their latest release "Listen Closely." Have fun! - Casey

Comments about this tab

No comments/corrections found. Add your own

Complimentary Christian Ringtones
Dadamobile and CGR have teamed up to bring your favorite Christian artists right to your phone. Sign up today and get 10 complementary ringtones!
Tab Country
Did you know CGR has a sister site w/ country guitar tabs? Well we do! Its called Tab Country. It has a great archive with a lot of country tabs.
Rockin Tabs
Are you looking for a site that has rock guitar tabs? Then Rockintabs.com is the place for you. It is a budding site with many rock guitar tabs. Submit your tab today.
Tab Gallery
Tab Gallery has a compilation of christian, rock, and country tabs all in one place. Come visit us.