Guitar Tabs
song title    band name

Join Us Today!

Don't strum alone...
be a part of the largest online Christian music community. Browse thousands of guitar tabs and chat w/ musicians like yourself.


It's Free!

Smalltown Poets - Anything Genuine

This tab has not yet been rated for accuracy.Sorry, but you must be logged in to rate this tab.
Click here to log-in, or you can click here to register.
(Registration is free)

All songs owned by corresponding publishing company. If you make copies of any song on this website, be sure to report your usage to CCLI.
Title: Anthing Genuine
Artist: Smalltown Poets
Album: WoW '99
Copyright: Ardent Records/ Forefront Records

I'm sorry but I couldn't get a hold of the words for you. You'll
have to figure the rhythym out yourself. I don't think he has a
set pattern for the picking. I'm really too lazy to figure that
out right now. In the bridge the octave bars might be an
keyboard but I'd use guitar.-Kent-

        D5 A7sus  G2                D5 A7sus  G
Inrto E---------------      Verse E------------------
      B--3--3----/10--            B--3--3-----3-0-3--
      G--2--0------0--            G--2--0-----0-0-0--
      D--0--2-----/9--            D--0--2------------
      A----------/10--            A------------------
      E---------------            E------------------

For the pre-chorus play an A. When you come to the second chorus play Chorus2 2x.

          B5 D5 A5 B5 D5 E5 B5 D5 A5 B5     C
Chorus1 E-----------------------------------0--
        B-----------------------------------1--
        G--4--7--------7--9--4--7-----------0--
        D--4--7--7--9--7--9--4--7--7--4---4-2--
        A--2--5--7--9--5--7--2--5--7--2-0-2-0--
        E--------5--7--------------5-----------
        {------Chorus2------}  

Gui1     G5    Bm  G5    A     Gui2     
Bridge E--------2-----------      E----------------------------  
       B--3-----3--3-----2--      B--10--7--6-----10--7--6--5--
       G--0--7--4--0--7--2--      G---x--x--x--7---x--x--x--x--
       D--0--x--4--0--x--2--      D---7--5--4--x---7--5--4--2--
       A--x--5--2--x--5--0--      A------------5---------------
       E--3--------3--------      E----------------------------

The solo is played during the first part of the chorus.

E----------------------------------------------------------------------
B---------------------------------------------------------------15~----
G--------11----11----11--11*11--9-9h11p9--11-9-11*11----11--/14~-------
D--10-10----10----10---------------------------------10----------------
A----------------------------------------------------------------------
E----------------------------------------------------------------------

E---------------------------------------------- h = hammer-on
B------15~------15~--/17~--17~--17~--17~--17~-- p = pull-off
G--14~------14~-------------------------------- * = bend a 1/4 up and 
D----------------------------------------------     release to next 
A----------------------------------------------     stated fret
E----------------------------------------------

Comments about this tab

No comments/corrections found. Add your own

Complimentary Christian Ringtones
Dadamobile and CGR have teamed up to bring your favorite Christian artists right to your phone. Sign up today and get 10 complementary ringtones!
Tab Country
Did you know CGR has a sister site w/ country guitar tabs? Well we do! Its called Tab Country. It has a great archive with a lot of country tabs.
Rockin Tabs
Are you looking for a site that has rock guitar tabs? Then Rockintabs.com is the place for you. It is a budding site with many rock guitar tabs. Submit your tab today.
Tab Gallery
Tab Gallery has a compilation of christian, rock, and country tabs all in one place. Come visit us.