Guitar Tabs
song title    band name

Join Us Today!

Don't strum alone...
be a part of the largest online Christian music community. Browse thousands of guitar tabs and chat w/ musicians like yourself.


It's Free!

Smalltown Poets - Anymore

This tab has not yet been rated for accuracy.Sorry, but you must be logged in to rate this tab.
Click here to log-in, or you can click here to register.
(Registration is free)

All songs owned by corresponding publishing company. If you make copies of any song on this website, be sure to report your usage to CCLI.
Artist: Small town Poets
Song: Anymore
Album: self titled
Tabbed by: Joel Warnke
e-mail:drummerjoel@juno.com
My stat: Drums-3yrs. Guitar-1 1/2yrs.
Intro
 
             Mute an E for intro and all E playing verses 
   d     d     d     d   u     d    u    d    u    d    u    d    u   x2
E-------------------------------------------------------------------------
B-------------------------------------------------------------------------
G--1-----1-----1-----1----1----1----1----1----1----1----1----1----1-------
D--2-----2-----2-----2----2----2----2----2----2----2----2----2----2-------
A--2-----2-----2-----2----2----2----2----2----2----2----2----2----2-------
E-------------------------------------------------------------------------

   d     d     d     d    u    d    u    d    u    d    u    d    u      x2
E-------------------------------------------------------------------------
B-------------------------------------------------------------------------
G--1-----1-----1-----1----1----1----1----1----1----1----1----1----1-------
D--2-----2-----2-----2----2----2----2----2----2----2----2----2----2-------
A--2-----2-----2-----2----2----2----2----2----2----2----2----2----2-------
E-------------------------------------------------------------------------
covered it up with a question mark

                       
  d      d     d     d    u    d    u    d    u    d    u    d    u   x2
E-------------------------------------------------------------------------
B-------------------------------------------------------------------------
G--1-----1-----1-----1----1----1----1----1----1----1----1----1----1-------
D--2-----2-----2-----2----2----2----2----2----2----2----2----2----2-------
A--2-----2-----2-----2----2----2----2----2----2----2----2----2----2-------
E-------------------------------------------------------------------------
covered with a crowd
                                           unmute
E---------------------4----4---4------5---5---5--------------------------------
B---------------------4----4---4------5---5---5--------------------------------
G--1-----1-----1------5----5---5------6---6---6--------------------------------
D--2-----2-----2------6----6---6------7---7---7-----------9h-------------7h----
A--2-----2-----2------6----6---6------7---7---7--------9------9-------7------7-
E---------------------4----4---6------5---5---5----7--------------5------------
keeping myself among the proud
              mute
   d     d     d     d    u    d    u    d    u    d    u    d    u    x2
E---------------------------------------------------------------------------
B---------------------------------------------------------------------------
G--1-----1-----1-----1----1----1----1----1----1----1----1----1----1---------
D--2-----2-----2-----2----2----2----2----2----2----2----2----2----2---------
A--2-----2-----2-----2----2----2----2----2----2----2----2----2----2---------
E---------------------------------------------------------------------------
I don't beleive anyone could love

                   unmute
E------------------7----7-----5---5---5---5--5---4--4---5--5---7--7--7--7---
B------------------7----7-----5---5---5---5--5---4--4---5--5---7--7--7--7---
G-1-----1-----1----8----8-----6---6---6---6--6---5--5---6--6---8--8--8--8---
D-2-----2-----2----9----9-----7---7---7---7--7---6--6---7--7---9--9--9--9---
A-2-----2-----2----9----9-----7---7---7---7--7---6--6---7--7---9--9--9--9---
E------------------7----7-----5---5---5---5--5---4--4---5--5---7--7--7--7---
anyone less if they tried

E----5----4----4---4----5---5---5------------------------------------------7--
B----5----4----4---4----5---5---5------------------------------------------7--
G----6----5----5---5----6---6---6------------------------------------------8--
D----7----6----6---6----7---7---7-----------9h-------------7h----------6h--9--
A----7----6----6---6----7---7---7--------9------9-------7------7-----6-----9--
E----5----4----4---6----5---5---5----7--------------5-------------4--------7--
I smiled at you , and died inside ....inside

E------2---2---2---2---2---2---2---2-----7---7---7---7---7---7---7---7------
B------2---2---2---2---2---2---2---2-----7---7---7---7---7---7---7---7------
G------3---3---3---3---3---3---3---3-----8---8---8---8---8---8---8---8------
D------4---4---4---4---4---4---4---4-----9---9---9---9---9---9---9---9------
A------4---4---4---4---4---4---4---4-----9---9---9---9---9---9---9---9------
E------2---2---2---2---2---2---2---2-----7---7---7---7---7---7---7---7------
I heard the voice I knew

E------2---2---2---2---2---2---2---2-----7---7---7---7---7---7---7---7------
B------2---2---2---2---2---2---2---2-----7---7---7---7---7---7---7---7------
G------3---3---3---3---3---3---3---3-----8---8---8---8---8---8---8---8------
D------4---4---4---4---4---4---4---4-----9---9---9---9---9---9---9---9------
A------4---4---4---4---4---4---4---4-----9---9---9---9---9---9---9---9------
E------2---2---2---2---2---2---2---2-----7---7---7---7---7---7---7---7------
Covered it over with thought of you .......and I'll

E------2---2---2---2---2---2---2---2-----7---7---7---7---7---7---7---7------
B------2---2---2---2---2---2---2---2-----7---7---7---7---7---7---7---7------
G------3---3---3---3---3---3---3---3-----8---8---8---8---8---8---8---8------
D------4---4---4---4---4---4---4---4-----9---9---9---9---9---9---9---9------
A------4---4---4---4---4---4---4---4-----9---9---9---9---9---9---9---9------
E------2---2---2---2---2---2---2---2-----7---7---7---7---7---7---7---7------
never keep it silent ........

E----------------------------------------5---5---5---5---5---5---5---5------
B----------------------------------------5---5---5---5---5---5---5---5------
G-----1---1---1---1----1---1---1---1-----6---6---6---6---6---6---6---6------
D-----2---2---2---2----2---2---2---2-----7---7---7---7---7---7---7---7------
A-----2---2---2---2----2---2---2---2-----7---7---7---7---7---7---7---7------
E----------------------------------------5---5---5---5---5---5---5---5------
anymore , silent any......

E----------------------------------------5---5---5---5---5---5---5---5------
B----------------------------------------5---5---5---5---5---5---5---5------
G-----1---1---1---1----1---1---1---1-----6---6---6---6---6---6---6---6------
D-----2---2---2---2----2---2---2---2-----7---7---7---7---7---7---7---7------
A-----2---2---2---2----2---2---2---2-----7---7---7---7---7---7---7---7------
E----------------------------------------5---5---5---5---5---5---5---5------
-more , anymore

     d     d     d     d    u    d    u    d    u    d    u    d    u  x2
E---------------------------------------------------------------------------
B---------------------------------------------------------------------------
G----1-----1-----1-----1----1----1----1----1----1----1----1----1----1-------
D----2-----2-----2-----2----2----2----2----2----2----2----2----2----2-------
A----2-----2-----2-----2----2----2----2----2----2----2----2----2----2-------
E---------------------------------------------------------------------------
silently think of a prayer for me

     d     d     d     d    u    d    u    d    u    d    u    d    u     x2
E---------------------------------------------------------------------------
B---------------------------------------------------------------------------
G----1-----1-----1-----1----1----1----1----1----1----1----1----1----1-------
D----2-----2-----2-----2----2----2----2----2----2----2----2----2----2-------
A----2-----2-----2-----2----2----2----2----2----2----2----2----2----2-------
E---------------------------------------------------------------------------
voice it inside your head

E-------------------4----4---4------5---5---5----7---7---7---7---7---7---7---7-
B-------------------4----4---4------5---5---5----7---7---7---7---7---7---7---7-
G--1-----1-----1----5----5---5------6---6---6----8---8---8---8---8---8---8---8-
D--2-----2-----2----6----6---6------7---7---7----9---9---9---9---9---9---9---9-
A--2-----2-----2----6----6---6------7---7---7----9---9---9---9---9---9---9---9-
E-------------------4----4---6------5---5---5----7---7---7---7---7---7---7---7-
maybe I need to hear it said...

     d     d     d     d    u    d    u    d    u    d    u    d    u   x2
E----------------------------------------------------------------------------
B----------------------------------------------------------------------------
G----1-----1-----1-----1----1----1----1----1----1----1----1----1----1--------
D----2-----2-----2-----2----2----2----2----2----2----2----2----2----2--------
A----2-----2-----2-----2----2----2----2----2----2----2----2----2----2--------
E----------------------------------------------------------------------------
sometimes a word condems the thought

E------------------7----7-----5---5---5---5--5---4--4---5--5---7--7--7--7----
B------------------7----7-----5---5---5---5--5---4--4---5--5---7--7--7--7----
G-1-----1-----1----8----8-----6---6---6---6--6---5--5---6--6---8--8--8--8----
D-2-----2-----2----9----9-----7---7---7---7--7---6--6---7--7---9--9--9--9----
A-2-----2-----2----9----9-----7---7---7---7--7---6--6---7--7---9--9--9--9----
E------------------7----7-----5---5---5---5--5---4--4---5--5---7--7--7--7----
so they'll  held alot
 
E--5----4----4---4------5---5---5------------------------------------------7---
B--5----4----4---4------5---5---5------------------------------------------7---
G--6----5----5---5------6---6---6------------------------------------------8---
D--7----6----6---6------7---7---7-----------9h-------------7h----------6h--9---
A--7----6----6---6------7---7---7--------9------9-------7------7-----6-----9---
E--5----4----4---6------5---5---5----7--------------5-------------4--------7---
Silence is golden when i'm not ........i'm not

E------2---2---2---2---2---2---2---2-----7---7---7---7---7---7---7---7-------
B------2---2---2---2---2---2---2---2-----7---7---7---7---7---7---7---7-------
G------3---3---3---3---3---3---3---3-----8---8---8---8---8---8---8---8-------
D------4---4---4---4---4---4---4---4-----9---9---9---9---9---9---9---9-------
A------4---4---4---4---4---4---4---4-----9---9---9---9---9---9---9---9-------
E------2---2---2---2---2---2---2---2-----7---7---7---7---7---7---7---7-------
Whether it's god or it's you , 

E------2---2---2---2---2---2---2---2-----7---7---7---7---7---7---7---7-------
B------2---2---2---2---2---2---2---2-----7---7---7---7---7---7---7---7-------
G------3---3---3---3---3---3---3---3-----8---8---8---8---8---8---8---8-------
D------4---4---4---4---4---4---4---4-----9---9---9---9---9---9---9---9-------
A------4---4---4---4---4---4---4---4-----9---9---9---9---9---9---9---9-------
E------2---2---2---2---2---2---2---2-----7---7---7---7---7---7---7---7-------
I need to speak and be spoken to ,

E------2---2---2---2---2---2---2---2-----7---7---7---7---7---7---7---7-------
B------2---2---2---2---2---2---2---2-----7---7---7---7---7---7---7---7-------
G------3---3---3---3---3---3---3---3-----8---8---8---8---8---8---8---8-------
D------4---4---4---4---4---4---4---4-----9---9---9---9---9---9---9---9-------
A------4---4---4---4---4---4---4---4-----9---9---9---9---9---9---9---9-------
E------2---2---2---2---2---2---2---2-----7---7---7---7---7---7---7---7-------
I can't stand this silence any....

E----------------------------------------5---5---5---5---5---5---5---5-------
B----------------------------------------5---5---5---5---5---5---5---5-------
G-----1---1---1---1----1---1---1---1-----6---6---6---6---6---6---6---6-------
D-----2---2---2---2----2---2---2---2-----7---7---7---7---7---7---7---7-------
A-----2---2---2---2----2---2---2---2-----7---7---7---7---7---7---7---7-------
E----------------------------------------5---5---5---5---5---5---5---5-------
more silence any......

E----------------------------------------5---5---5---5---5---5---5---5-------
B----------------------------------------5---5---5---5---5---5---5---5-------
G-----1---1---1---1----1---1---1---1-----6---6---6---6---6---6---6---6-------
D-----2---2---2---2----2---2---2---2-----7---7---7---7---7---7---7---7-------
A-----2---2---2---2----2---2---2---2-----7---7---7---7---7---7---7---7-------
E----------------------------------------5---5---5---5---5---5---5---5-------

-more silence , any......
E----------------------------------------5---5---5---5---5---5---5---5-------
B----------------------------------------5---5---5---5---5---5---5---5-------
G-----1---1---1---1----1---1---1---1-----6---6---6---6---6---6---6---6-------
D-----2---2---2---2----2---2---2---2-----7---7---7---7---7---7---7---7-------
A-----2---2---2---2----2---2---2---2-----7---7---7---7---7---7---7---7-------
E----------------------------------------5---5---5---5---5---5---5---5-------
-more , anymore

        Guitar 1 Solo
E----------------------------------------7----------------------------------7--
B----------------------------------------7----------------------------------7--
G----------------------------------------8----------------------------------8--
D---------9h-------------7h----------6h--9--------9h---------7h--------6h---9--
A------9------9-------7------7-----6-----9------9-----9----7-----7---6----6-9--
E--7--------------5-------------4--------7--7-----------5----------4--------7--
        Guitar 2 Solo Guitar 1 does this 3x .                          
       
E------2---2---2---2---2---2---2---2-----7---7---7---7---7---7---7---7-----
B------2---2---2---2---2---2---2---2-----7---7---7---7---7---7---7---7-----
G------3---3---3---3---3---3---3---3-----8---8---8---8---8---8---8---8-----
D------4---4---4---4---4---4---4---4-----9---9---9---9---9---9---9---9-----
A------4---4---4---4---4---4---4---4-----9---9---9---9---9---9---9---9-----
E------2---2---2---2---2---2---2---2-----7---7---7---7---7---7---7---7-----
Can't stand it any....

E----------------------------------------5---5---5---5---5---5---5---5-----
B----------------------------------------5---5---5---5---5---5---5---5-----
G-----1---1---1---1----1---1---1---1-----6---6---6---6---6---6---6---6-----
D-----2---2---2---2----2---2---2---2-----7---7---7---7---7---7---7---7-----
A-----2---2---2---2----2---2---2---2-----7---7---7---7---7---7---7---7-----
E----------------------------------------5---5---5---5---5---5---5---5-----

-more silence any....

E-------------------------------------5---5---5---5---5---5---5---5------
B-------------------------------------5---5---5---5---5---5---5---5------
G--1---1---1---1----1---1---1---1-----6---6---6---6---6---6---6---6------
D--2---2---2---2----2---2---2---2-----7---7---7---7---7---7---7---7------
A--2---2---2---2----2---2---2---2-----7---7---7---7---7---7---7---7------
E-------------------------------------5---5---5---5---5---5---5---5------

-more no not  any...

E-------------------------------------5---5---5---5---5---5---5---5-----
B-------------------------------------5---5---5---5---5---5---5---5-----
G--1---1---1---1----1---1---1---1-----6---6---6---6---6---6---6---6-----
D--2---2---2---2----2---2---2---2-----7---7---7---7---7---7---7---7-----
A--2---2---2---2----2---2---2---2-----7---7---7---7---7---7---7---7-----
E-------------------------------------5---5---5---5---5---5---5---5-----

-more silence any.....

E-------------------------------------5---5---5---5---5---5---5---5------
B-------------------------------------5---5---5---5---5---5---5---5------
G--1---1---1---1----1---1---1---1-----6---6---6---6---6---6---6---6------
D--2---2---2---2----2---2---2---2-----7---7---7---7---7---7---7---7------
A--2---2---2---2----2---2---2---2-----7---7---7---7---7---7---7---7------
E-------------------------------------5---5---5---5---5---5---5---5------

-more , anymore

Comments about this tab

No comments/corrections found. Add your own

Complimentary Christian Ringtones
Dadamobile and CGR have teamed up to bring your favorite Christian artists right to your phone. Sign up today and get 10 complementary ringtones!
Tab Country
Did you know CGR has a sister site w/ country guitar tabs? Well we do! Its called Tab Country. It has a great archive with a lot of country tabs.
Rockin Tabs
Are you looking for a site that has rock guitar tabs? Then Rockintabs.com is the place for you. It is a budding site with many rock guitar tabs. Submit your tab today.
Tab Gallery
Tab Gallery has a compilation of christian, rock, and country tabs all in one place. Come visit us.