Guitar Tabs
song title    band name

Join Us Today!

Don't strum alone...
be a part of the largest online Christian music community. Browse thousands of guitar tabs and chat w/ musicians like yourself.


It's Free!

This tab has been rated a 5.00 out of 5 for accuracy. (1 vote)Sorry, but you must be logged in to rate this tab.
Click here to log-in, or you can click here to register.
(Registration is free)

All songs owned by corresponding publishing company. If you make copies of any song on this website, be sure to report your usage to CCLI.
Song: Angel
Artist: Slick Shoes
c2000 Tooth&Nail Records
Tabbed by Steve Cruickshank (postlambjam@hotmail.com)

This song consists mostly of the lead guitar playing octave runs and the
rhythm guitar playing the chords (which are written below the tab). It's
pretty complex, I hope you can make sense of it

Intro:(Bass)

D---------------------------------------------
A-6---6---6--4---4---4--2---2---2--1---1---1--
E--7-7-7-7----6-6-6-6----4-4-4-4----2-2-2-2---
B          F#         G#m        F#

D-----------------------------------------------
A-2---2---2--1---1---1--2---2---2--2---2--1---1-
E--0-0-0-0----2-2-2-2----0-0-0-0----4-4----2-2--
E          F#         E          G#m    F#



Then play this over the intro chords

e---------------------------------------------------
B---------------------------------------------------
G---------------------------------------------------
D--9------------------8-9-8-4----8-9-8------6---4---
A--------------------------------------7------------
E--7------------------6-7-6-2----6-7-6-0----4---2---
B    F#     G#m    F#    E    F#    E    G#m F#



Then...
e------------------------------
B------------------------------
G-8---11--8---6---4---8---6----
D------------------------------
A-6---9---6---4---2---6---4----  (x2)
E------------------------------
B   F#  B   F#  E   G#m F#



VERSE:
B  F# E  F# B
F# E  F#
B  F# E  F# B
F# E  F#

e-------------------------
B-------------------------
G--4-4-4------3-4-3-------
D--4-4-4----4-------4-----
A--2-2-2------------------
E---------4---------------



CHORUS:

E  F#  G#m F# E
F# G#m F#  E 
F# G#m F#  E


Octaves used in chorus:
G-------------------------------9-----8----6----11---4----9-8--6-
D----------------------------------------------------------------
A-------------------------------7-----6----4----9----2----7-6--4-
E----------------------------------------------------------------
  E   F#   G#m   F#   E   F#    G#m   F#   E    F#   G#m  F#   E


Next part:

G--4-3-4---6-4-3---4-3-4---6-4-3-----
D------------------------------------
A--2-1-2---4-2-1---2-1-2---4-2-1-----  (x2)
E------------------------------------
   B       E       G#m     F#


Next part:
E  F# E  F#

Tab for this part:

G---4-3--------4-6---4-3------4-3--4-3----
D-------4h6p4-----2-----4--------4----4---
A-----------------------------------------
E-----------------------------------------
E         F#    E     F#    F#



CHORUS x2
End on B power chord


OUTRO:
G--4-----11-----4----
D--4-----11-----4----
A--2-----9------2---- (fades out around there)
E--------------------
   B     E      B

Comments about this tab

No comments/corrections found. Add your own

Complimentary Christian Ringtones
Dadamobile and CGR have teamed up to bring your favorite Christian artists right to your phone. Sign up today and get 10 complementary ringtones!
Tab Country
Did you know CGR has a sister site w/ country guitar tabs? Well we do! Its called Tab Country. It has a great archive with a lot of country tabs.
Rockin Tabs
Are you looking for a site that has rock guitar tabs? Then Rockintabs.com is the place for you. It is a budding site with many rock guitar tabs. Submit your tab today.
Tab Gallery
Tab Gallery has a compilation of christian, rock, and country tabs all in one place. Come visit us.