Guitar Tabs
song title    band name

Join Us Today!

Don't strum alone...
be a part of the largest online Christian music community. Browse thousands of guitar tabs and chat w/ musicians like yourself.


It's Free!

This tab has not yet been rated for accuracy.Sorry, but you must be logged in to rate this tab.
Click here to log-in, or you can click here to register.
(Registration is free)

All songs owned by corresponding publishing company. If you make copies of any song on this website, be sure to report your usage to CCLI.
Author/Artist: polarboy
Title: at least i tried
Album: 4 008
Transcribed by: Sebastian
Email: bvst@eriecoast.com

-1|------------|---------|---------|---------|-------------|---------|--------
-2|----9-9-9-9-|-9-9-9-9-|-9-9-9-9-|-9-9-9-9-|-10-10-10-10-|-9-9-9-9-|-10-10--
-3|----9-9-9-9-|-9-9-9-9-|-9-9-9-9-|-9-9-9-9-|-9--9--9--9--|-9-9-9-9-|-9--9---
-4|----9-9-9-9-|-9-9-9-9-|-9-9-9-9-|-9-9-9-9-|-9--9--9--9--|-9-9-9-9-|-9--9---
-5|----7-7-7-7-|-6-6-6-6-|---------|---------|-7--7--7--7--|-7-7-7-7-|-7--7---
-6|------------|---------|-9-9-9-9-|-7-7-7-7-|-------------|---------|--------
 Intro                                                                        

-1|-------|---------|---------------------------------|---0-----------------|-
-2|-10-10-|---------|---------------------------------|---0-----------------|-
-3|-9--9--|-9---8---|---------------------------------|---2-------4--4--4-/-|-
-4|-9--9--|-9---9---|---------------------------------|---2-------4--4--4-/-|-
-5|-7--7--|---------|---------------------------------|---0-------2--2--2---|-
-6|-------|---------|---------------------------------|---------------------|-
           (vibrato)   Repeat intro during the verse    end of first verse    

-1|-----------------------------------|---0-0--------0--------0---------------
-2|-----------------------------------|---0--0--------0--------0--------------
-3|-----------------------------------|---2--------4---------6-------4-/-9----
-4|-----------------------------------|---2--------4---------6-------4-/-9----
-5|-----------------------------------|---0--------2---------4-------2-/-7----
-6|-----------------------------------|---------------------------------------
   repeat intro again for second verse Chorus: who better to be the one....   

-1|---0-----------------|----------------------------------|---------2----/---
-2|---0-----------------|----------------------------------|---------2----/---
-3|---2------4--4--4-/--|----------------------------------|---------2----/---
-4|---2------4--4--4-/--|----------------------------------|---------2----/---
-5|---0------2--2--2----|----------------------------------|------------------
-6|---------------------|----------------------------------|------------------
    at least i tried        repeat intro for third verse     my sister        

-1|-/---5------------------------------------------------------------|--------
-2|-/---5--------------9--9--9--9--------9-9-9-9--------10-10-10-10--|-9-9-9--
-3|-/---5--------------9--9--9--9--------9-9-9-9--------9--9--9--9---|-9-9-9--
-4|-/---5--------------9--9--9--9--------9-9-9-9--------9--9--9--9---|-9-9-9--
-5|-----------------------------------------------------7--7--7--7---|-7-7-7--
-6|--------------------9--9--9--9--------7-7-7-7---------------------|--------
   knocked out all my teeth      said im missing out on everything            

-1|---|--------------|-----------|-----------------|--------------------------
-2|-9-|--10-10-10-10-|-----------|-----------------|--------------------------
-3|-9-|--9--9--9--9--|---9---8---|-----------------|--------------------------
-4|-9-|--9--9--9--9--|---9---9---|-----------------|------4----------4--------
-5|-7-|--7--7--7--7--|-----------|-----------------|------4----------4--------
-6|---|--------------|-----------|-----------------|------2----------2--------
                                   repeat chorus      bridge:  then in the      

-1|----------------0----------------------------------0------|----------------
-2|----------------0----------------------------------0------|----------------
-3|----------------2----------------------------------2---4--|---6--------4---
-4|----------------2--------4-------------------------2---4--|---6--------4---
-5|----------------0--------4-------------------------0---2--|---4--------2---
-6|-------------------------2--------------------------------|----------------
 mourning before the dawn  ...my brother , he came back home      my sister,she  

-1|----------------0-------------------------0------|----------------|--------
-2|----------------0-------------------------0------|----------------|--------
-3|----------------2-------------------------2------|----------------|--------
-4|----------------2-----------4-------------2------|----------------|--------
-5|----------------0-----------4-------------0------|----------------|--------
-6|----------------------------2--------------------|----------------|--------
   aint come home yet, shes a wild card at best         yeaaaaaaaah!          

-1|-------------------|-0---------------------|-0-----------------------|-----
-2|-------------------|-0---------------------|-0-----------------------|-----
-3|-------------------|-2--------4---4--4-----|-2--------4---4---4------|-----
-4|-------------------|-2--------4---4--4-----|-2--------4---4---4------|-----
-5|-------------------|-0--------2---2--2-----|-0--------2---2---2------|-----
-6|-------------------|-----------------------|-------------------------|-----
    repeat chorus:          at least i tried    ohh at least i tried          

-1|-0----------------------|--------------------------------------------------
-2|-0----------------------|--------------------------------------------------
-3|-2-------4---4---4------|--------------------------------------------------
-4|-2-------4---4---4------|--------------------------------------------------
-5|-0-------2---2---2------|--------------------------------------------------
-6|------------------------|--------------------------------------------------
    oh at least i tried!                                                      

------------------------------------------------------------------------------
well thats the rough copy...but it gets the job done... email me if you
have any questions or comments at bvst@eriecoast.com

Comments about this tab

No comments/corrections found. Add your own

Complimentary Christian Ringtones
Dadamobile and CGR have teamed up to bring your favorite Christian artists right to your phone. Sign up today and get 10 complementary ringtones!
Tab Country
Did you know CGR has a sister site w/ country guitar tabs? Well we do! Its called Tab Country. It has a great archive with a lot of country tabs.
Rockin Tabs
Are you looking for a site that has rock guitar tabs? Then Rockintabs.com is the place for you. It is a budding site with many rock guitar tabs. Submit your tab today.
Tab Gallery
Tab Gallery has a compilation of christian, rock, and country tabs all in one place. Come visit us.