Guitar Tabs
song title    band name

Join Us Today!

Don't strum alone...
be a part of the largest online Christian music community. Browse thousands of guitar tabs and chat w/ musicians like yourself.


It's Free!

This tab has not yet been rated for accuracy.Sorry, but you must be logged in to rate this tab.
Click here to log-in, or you can click here to register.
(Registration is free)

All songs owned by corresponding publishing company. If you make copies of any song on this website, be sure to report your usage to CCLI.
Submitted by: Ben Cole

Amazing Grace
Written by John Newton
Tabbed by Ben Cole
This should be posted because it is a tab that is more than just the melody. 


D                        D7                G (Bar)         D/F#

-------------------2-----2------------0-------------------------------
-----3------3--------3---------1--------3--3----------------------3-
--2-----2----------------2--------2----------------------4--2--------
-----0---------0------------0----------------------5------------0----
-------------------------------------------------5---5---------------
-------------------------------------------3----------------2--------
	
	                                      A7 (Bar)                

---------------------2------2-------------0---5---------------------
--------3------3---------3--3----------------------------------5----
----2------2---------2-------------2----------6------------6-------
-0------0---------0--------------------0-------------0--------------
---------------------------------0----------------------7-----------
---------------------------------------------------5------------------

    D (Bar)	                   G (Bar)	       D/F#

-2--5------------5-----------------------------------------------------
--------------7-----7--------------------------3--3-------------------
-----------7-----7-----7-----5--2--4-----------------4--2------------
--------------------------------------------5--------------------0-----
----5------------------5----------------5--------------------0-----0-
--------5------------------5-------3--------------------2------------

  D	               D (Bar)       D

------------------2------------------0----------------------------------
-----3-----3--------3--7----------------3---3--------------------------
--2-----2---------------------7------2------2--------------------------
-----0--------0------------------7----------0-------------------------
----------------------------5------------------------------------------
-----------------------5---------------------------------------------

Notes:
1. The chords above the tab help with the fingering, so most of the time if 
you just hold the chord that is above the tab, most of your fingers will
already be in place. Or, these chords work just fine if you just want to
strume the song.

2. This song is easiest for me to play with my thumb and index finger.

3. For those of you who don't know how to read tabs and all this just looks
like a bunch of random numbers, here's tabs made easy:

First of all, the six lines represent the six strings on a guitar. It is a 
little different, though, because the top string on the tabs represents the
high e string (or bottom string) on the actual guitar. Second, the numbers
are read left to righ (just like English!), and whenever you see a number that
means pluck just that string that the number is on on whatever fret the number
is. There are just two other things to remember about the numbers on tabs. 
When you see a zero, that means pluck the string open (or without holding it
down). Also when two or more numbers are in the same line (directly over
each other) that means to pluck all those strings at the same time. Yeah, 
that's pretty much it. Oh, and don't like I tried at first, to use a pick with
tabs. It doesn't work so well. Just use mostly your thumb and index. 

Comments about this tab

playmusic4him - 2008-11-02

That was really nice of you to help those who don't know how to read music


Add a comment/correction

Complimentary Christian Ringtones
Dadamobile and CGR have teamed up to bring your favorite Christian artists right to your phone. Sign up today and get 10 complementary ringtones!
Tab Country
Did you know CGR has a sister site w/ country guitar tabs? Well we do! Its called Tab Country. It has a great archive with a lot of country tabs.
Rockin Tabs
Are you looking for a site that has rock guitar tabs? Then Rockintabs.com is the place for you. It is a budding site with many rock guitar tabs. Submit your tab today.
Tab Gallery
Tab Gallery has a compilation of christian, rock, and country tabs all in one place. Come visit us.