Guitar Tabs
song title    band name

Join Us Today!

Don't strum alone...
be a part of the largest online Christian music community. Browse thousands of guitar tabs and chat w/ musicians like yourself.


It's Free!

This tab has been rated a 4.00 out of 5 for accuracy. (1 vote)Sorry, but you must be logged in to rate this tab.
Click here to log-in, or you can click here to register.
(Registration is free)

All songs owned by corresponding publishing company. If you make copies of any song on this website, be sure to report your usage to CCLI.
Submitted by: AudioACanuck

To the admin I play the prechorus and chorus differently and I find it
easier for people finding tabs to take a whole song than for them to try and
piece it together from everyone elses corrections.

s=slide
x=left hand mute just lightly lift your fingers up

Where two chords are right together like this 33 Play them with a quick 
downstroke then upstroke, or upstroke then    33   
downstroke.                                   11 
The final chord can also be played 5
                                   3
                                   2
                                   0
                                   0
                                   0  

Verse                                   6X
E----------------------------0----------
B----6-------5-------3-1-------6--------
G-s7---7--s5---5--s3------s5------------
D---------------------------------------
A---------------------------------------
D---------------------------------------

Prechorus
E-------------------------------------------------------------
B-------------------------------------------------------------
G-------------------------------------------------------------
D-000---0--0-----0---0-7-3-5-0-----0--0-----0---0-3-5-0-------
A-000---0--0---5-0-5-0-7-3-5-0-----0--0----50--50-3-5-0-------
D-000---0--0-----0---0-7-3-5-0-----0--0-----0---0-3-5-0-------  
         
Chorus                                                         
E--------------------------------------------------------------------------
B--------------------------------------------------------------------------
G-3-3-x--33--------------------------3-3-x--33--------5-5-5-5---55--22-----
D-3-3-x--333-3-x-335-5-5-5-0-0-0-0---3-3-x--333-3-x-335-5-3-5---55--22-----
A-1-1-x--113-3-x-335-5-5-5-0-0-0-0---1-1-x--113-3-x-333-3-3-3---33--00-----
D----------3-3-x-335-5-5-5-0-0-0-0------------3-3-x-33---------------------
                                                                       
E--------------------------------------------------------------------------
B--------------------------------------------------------------------------
G-3-3-x--33--------------------------3-3-x--33--------5-5-5-5--------------
D-3-3-x--333-3-x-335-5-5-5-0-0-0-0---3-3-x--333-3-x-335-5-5-5--7-3-5-0-----
A-1-1-x--113-3-x-335-5-5-5-0-0-0-0---1-1-x--113-3-x-333-3-3-3--7-3-5-0-----
D----------3-3-x-335-5-5-5-0-0-0-0------------3-3-x-33---------7-3-5-0-----

Postchorus                                                                  
E--------------------------0-1------
B-----3-----3-----3-----3-----------
G---2-----0-----0-----0-------------
D-0---------------------------------
A-------3-----2-----1---------------
D-----------------------------------

Verse 2                                  4x
E----------------------------0----------
B----6-------5-------3-1-------6--------
G-s7---7--s5---5--s3------s5------------
D---------------------------------------
A---------------------------------------
D---------------------------------------

Prechorus

Chorus

Bridge                                                    Repeat until Chorus
E--------------------------0-1-------------------------0-1---
B-----3-----3-----3-----3----------3-------------------------
G---2-----0-----0-----0----------2-------0-----0-----0-------
D-0----------------------------0-------0-----0-----0---------
A-------3-----2-----1----------------3-----2-----1-----------
D------------------------------------------------------------

Chorus                                                                      2x
E--------------------------------------------------------------------------
B--------------------------------------------------------------------------
G-3-3-x--33--------------------------3-3-x--33--------5-5-5-5---55--22-----
D-3-3-x--333-3-x-335-5-5-5-0-0-0-0---3-3-x--333-3-x-335-5-3-5---55--22-----
A-1-1-x--113-3-x-335-5-5-5-0-0-0-0---1-1-x--113-3-x-333-3-3-3---33--00-----
D----------3-3-x-335-5-5-5-0-0-0-0------------3-3-x-33---------------------

E----------------------------------------------------------------------
B----------------------------------------------------------------------
G-3-3-3-3-------------------------3-3-3-3---------5-5-5-5---55--22-----
D-3-3-3-3-3-3-3-3-5-5-5-5-0-0-0-0-3-3-3-3-3-3-3-3-5-5-5-5---55--22-----
A-1-1-1-1-3-3-3-3-5-5-5-5-0-0-0-0-1-1-1-1-3-3-3-3-3-3-3-3---33--00-----
D---------3-3-3-3 5-5-5-5-0-0-0-0---------3-3-3-3----------------------

E---------------------------------------------------------------------
B---------------------------------------------------------------------
G-3-3-3-3-------------------------3-3-3-3---------5-5-5-5-------------
D-3-3-3-3-3-3-3-3-5-5-5-5-0-0-0-0-3-3-3-3-3-3-3-3-5-5-5-5--0-3-5-7----
A-1-1-1-1-3-3-3-3-5-5-5-5-0-0-0-0-1-1-1-1-3-3-3-3-3-3-3-3--0-3-5-7----
D---------3-3-3-3 5-5-5-5-0-0-0-0---------3-3-3-3----------0-3-5-7----

Comments about this tab

AudioACanuck - 2006-12-13

Oh ya I forgot to say, this isnt exactly my tab, my guitar instructor tabbed it out for me, and I just put a couple things in like the mutes. So jsut giving credit to the real tabber.


ice_wiz - 2007-01-05

Good tab. 4.


Add a comment/correction

Complimentary Christian Ringtones
Dadamobile and CGR have teamed up to bring your favorite Christian artists right to your phone. Sign up today and get 10 complementary ringtones!
Tab Country
Did you know CGR has a sister site w/ country guitar tabs? Well we do! Its called Tab Country. It has a great archive with a lot of country tabs.
Rockin Tabs
Are you looking for a site that has rock guitar tabs? Then Rockintabs.com is the place for you. It is a budding site with many rock guitar tabs. Submit your tab today.
Tab Gallery
Tab Gallery has a compilation of christian, rock, and country tabs all in one place. Come visit us.