Guitar Tabs
song title    band name

Join Us Today!

Don't strum alone...
be a part of the largest online Christian music community. Browse thousands of guitar tabs and chat w/ musicians like yourself.


It's Free!

This tab has been rated a 4.25 out of 5 for accuracy. (8 votes)Sorry, but you must be logged in to rate this tab.
Click here to log-in, or you can click here to register.
(Registration is free)

All songs owned by corresponding publishing company. If you make copies of any song on this website, be sure to report your usage to CCLI.
Submitted by: guitar_freakk09

Artist Stellar kart
Song  Activate
album We cant stand sitting down


Hey i hope yal like it.
God Bless!!!!!!!!!!!!!!!!!


Intro


Guitar 1


e-----------------------------------------------------------------------
b-----------------------------------------------------------------------
g---11-9-8-9-9h11--11-9-8-9-9h8--11-9-8-9-9h11--11-9-8h98h9-8-9h8-------
d-----------------------------------------------------------------------
a-----------------------------------------------------------------------
e-----------------------------------------------------------------------


Guitar 2

e-------------------------------------------------------------------
b-------------------------------------------------------------------
g-4-4-4----------------------------------4-4-4----------------------
d-4-4-4---4-4-4---6-6-6---2-2-2----------4-4-4--4-4-4--2-2-2-2-2----
a-2-2-2---4-4-4---6-6-6---2-2-2----------2-4-4--4-4-4--2-2-2-2-2----
e---------2-2-2---4-4-4---0-0-0-----------------2-2-2--0-0-0-0-0----




verse



Guitar 1


e-----------------------------------------------
b-----------------------------------------------
g--4-4--3-3--4-4--6-6------------4-4--6-6------- x2
d----------------------6-6--4-4-----------------    
a-----------------------------------------------
e-----------------------------------------------




pre chorus



guitar1 & 2


e------------------------------------------------
b------------------------------------------------
g------------------------------------------------
d--2-------------4-----------2------------4------
a--2-------------4-----------2------------4------
e--0-------------2-----------0------------2------




Chorus


Guitar 1 & 2


e-------------------------------------------------------------------
b-------------------------------------------------------------------
g-4-4-4-4------------------------------4-4-4-4-----------------------
d-4-4-4-4--4-4-4-4--6-6-6-6--2-2-2-2---4-4-4-4--4-4-4-4--2-2-2-2-2---  x2
a-2-2-2-2--4-4-4-4--6-6-6-6--2-2-2-2---2-2-2-2--4-4-4-4--2-2-2-2-2---
e----------2-2-2-2--4-4-4-4--0-0-0-0------------2-2-2-2--0-0-0-0-0---




post chorus


guitar 1


e----------------------------------------------
b--9-9-9-9--11-11-11-11--12-12-12-12--14-------
g----------------------------------------------
d----------------------------------------------
a----------------------------------------------
e----------------------------------------------



guitar 2

e------------------------------------------
b------------------------------------------
g------------------------------------------
d---6-6-6-6--4-4-4-4--6-6-6-6--2-2-2-2-----
a---6-6-6-6--4-4-4-4--6-6-6-6--2-2-2-2-----
e---4-4-4-4--2-2-2-2--4-4-4-4--0-0-0-0-----







verse 2



guitar 1



e-----------------------------------------------
b-----------------------------------------------
g--4-4--3-3--4-4--6-6------------4-4--6-6------- x1
d----------------------6-6--4-4-----------------    
a-----------------------------------------------
e-----------------------------------------------



pre chorus




guitar1 & 2


e------------------------------------------------
b------------------------------------------------
g------------------------------------------------
d--2-------------4-----------2------------4------
a--2-------------4-----------2------------4------
e--0-------------2-----------0------------2------




chorus



guitar 1 & 2





e-------------------------------------------------------------------
b-------------------------------------------------------------------
g-4-4-4-4------------------------------4-4-4-4-----------------------
d-4-4-4-4--4-4-4-4--6-6-6-6--2-2-2-2---4-4-4-4--4-4-4-4--2-2-2-2-2---  x2
a-2-2-2-2--4-4-4-4--6-6-6-6--2-2-2-2---2-2-2-2--4-4-4-4--2-2-2-2-2---
e----------2-2-2-2--4-4-4-4--0-0-0-0------------2-2-2-2--0-0-0-0-0---





bridge



guitar 1

e--------------------------------------------------------------
b--------------------------------------------------------------
g------------------11-9-8-6------------------------------------
d--------------------------------------------------------------
a--------------------------------------------------------------
e--------------------------------------------------------------



guitar 2

e------------------------------------------------------------
b------------------------------------------------------------
g-----6----------------------6-------------------------------
d-----6----------4-----------6------------2---(16x)----------
a-----4----------4-----------4------------2------------------
e----------------2------------------------0------------------




guitar 1


e-----------------------------------------------------------------------------
b-----------------------------------------------------------------------------
g-8-8-8--4h6--13-13-13--8h9--20-20-20--16h18--16h21-16h21-16-20s21-20-21s20-16
d-----------------------------------------------------------------------------
a-----------------------------------------------------------------------------
e-----------------------------------------------------------------------------


guitar 2



e--------------------------------------------------------------------
b--------------------------------------------------------------------
g-4-4-4-4------------------------------4-4-4-4-----------------------
d-4-4-4-4--4-4-4-4--6-6-6-6--2-2-2-2---4-4-4-4--4-4-4-4--2-2-2-2-2--- 
a-2-2-2-2--4-4-4-4--6-6-6-6--2-2-2-2---2-2-2-2--4-4-4-4--2-2-2-2-2---
e----------2-2-2-2--4-4-4-4--0-0-0-0------------2-2-2-2--0-0-0-0-0---



guitar  2


e----------------------------------------------
b----------------------------------------------
g-----444444444444444444444444-----------------
d-----xxxxxxxxxxxxxxxxxxxxxxxx-----------------
a-----222222222222222222222222-----------------
e----------------------------------------------


guitar 1


e----------------------------------------------------
b----------------------------------------------------
g----------------------------------------------------
d----------------------------------------------------
a------------------------------------------1--2--5---
e----------------------------------0--1--2-----------



chorus



guitar 1

e-----------------------------------------------------
b-----------------------------------------------------
g--20-20-20--16-18--20-20-20-17-16--20-20-20-16-18----
d-----------------------------------------------------  x2
a-----------------------------------------------------
e-----------------------------------------------------




guitar 2



e-------------------------------------------------------------------
b-------------------------------------------------------------------
g-4-4-4-4------------------------------4-4-4-4-----------------------
d-4-4-4-4--4-4-4-4--6-6-6-6--2-2-2-2---4-4-4-4--4-4-4-4--2-2-2-2-2---  x2
a-2-2-2-2--4-4-4-4--6-6-6-6--2-2-2-2---2-2-2-2--4-4-4-4--2-2-2-2-2---
e----------2-2-2-2--4-4-4-4--0-0-0-0------------2-2-2-2--0-0-0-0-0---


(on the second time keep repeating the last power chord)




ending


Guitar 1


e-----------------------------------------------------------------------
b-----------------------------------------------------------------------
g---11-9-8-9-9h11--11-9-8-9-9h8--11-9-8-9-9h11--11-9-8h98h9-8-9h8-------
d-----------------------------------------------------------------------  x2
a-----------------------------------------------------------------------
e-----------------------------------------------------------------------


Guitar 2

e-------------------------------------------------------------------
b-------------------------------------------------------------------
g-4-4-4----------------------------------4-4-4----------------------   x2
d-4-4-4---4-4-4---6-6-6---2-2-2----------4-4-4--4-4-4--2-2-2-2-2----
a-2-2-2---4-4-4---6-6-6---2-2-2----------2-4-4--4-4-4--2-2-2-2-2----
e---------2-2-2---4-4-4---0-0-0-----------------2-2-2--0-0-0-0-0----   





Well there you have it
hope u like it
GOD BLESS YOU ALL!!!!!!!!!!



Tabbed by Marcos a.k.a guitar FREAKKK


=)

Comments about this tab

guitar_freakk09 - 2006-09-03

hey i forgot to put the guitar 2 part in the verses
here it is

verse1

guitar 2



e-------------------------------------------------------------
b-------------------------------------------------------------
g-----------------------------4-4-4-4-4-4---6-6-6-6-6-6-------
d-6-6-6-6-6-6---4-4-4-4-4-4---4-4-4-4-4-4---6-6-6-6-6-6------- x2
a-6-6-6-6-6-6---4-4-4-4-4-4---2-2-2-2-2-2---4-4-4-4-4-4-------
e-4-4-4-4-4-4---2-2-2-2-2-2-----------------------------------
x x x x x x x x x x x x x x x x x x x x x x x x





verse 2


guitar 2



e-------------------------------------------------------------
b-------------------------------------------------------------
g-----------------------------4-4-4-4-4-4---6-6-6-6-6-6-------
d-6-6-6-6-6-6---4-4-4-4-4-4---4-4-4-4-4-4---6-6-6-6-6-6------- x1
a-6-6-6-6-6-6---4-4-4-4-4-4---2-2-2-2-2-2---4-4-4-4-4-4-------
e-4-4-4-4-4-4---2-2-2-2-2-2-----------------------------------
x x x x x x x x x x x x x x x x x x x x x x x x



there it is add this to the tab
peace out
marcos


guitar_freakk09 - 2006-09-04

post chorus correction, (you can tell im really bad at writing tabs lol)




post chorus


guitar 1


e----------------------------------------------
b--9-9-9-9--11-11-11-11--12-12-12-12--14-------
g----------------------------------------------
d----------------------------------------------
a----------------------------------------------
e----------------------------------------------



guitar 2

e------------------------------------------
b------------------------------------------
g---------------------4-4-4-4--6-6-6-6-----
d---6-6-6-6--4-4-4-4--4-4-4-4--6-6-6-6-----
a---6-6-6-6--4-4-4-4--2-2-2-2--4-4-4-4-----
e---4-4-4-4--2-2-2-2-----------------------





Hawk_Nelson89 - 2006-09-05

great tab, umm can u make a tab of the wishes and dreams song i wanna play it and sing it to my g/f but i cant figure it out lol that would be great!


L-train - 2006-09-06

great tab marcos...


rockNforchrist - 2006-09-15

I have some constructive criticism. First of all, I think this is played in drop D and you'll see why in a sec.

The first solo part right after the first chorus is:

e-4-4-4p2h4--6-6-6p4h6--7-7-7p5h7-/9-----------
b----------------------------------------------
g----------------------------------------------
d----------------------------------------------
a----------------------------------------------
d----------------------------------------------

The second solo part I think is something like:

e---------------4-4-4p2h4-1---9-9-9p7h9-6-----9--9--------9
b-4-4-4p2h4-2-------------------------------77-77-77-5h7h9-
g----------------------------------------------------------
d----------------------------------------------------------
a----------------------------------------------------------
d----------------------------------------------------------

And finally, for the low riff at the end of the bridge
(This is why its in drop D):

e----------------------------------------------
b----------------------------------------------
g----------------------------------------------
d----------------------------------------------
a----------------------------------------------
d-1-2-4-6-8-10---------------------------------

Oh, and it sounds really cool on that last part
if you do a pick slide after the 6.



brain2you - 2006-11-13

all good sept i think the verse is more like this

G|xx2 xx3 xx5 xx3 xx9 xx7 xx2 xx3 xx5 xx7 (2x)

or something like that....oh yeah and i didnt put it all special or whatever,but i think thats right


consumed4God32 - 2008-03-01

What is "h" inthe intro


consumed4God32 - 2008-03-01

sry typo what is "h" in the intro


Praisew/guitar - 2008-03-12

The h in the intro stands for "hammering on". Which means, in this case g---9h11---, you finger the 9th fret with your pointer finger, pick the string and with your ring finger hit the 11th fret, without picking a second time. I hope that helped and I explained it well. It's used alot especially in rock/punk/alternative so learn it well if you are into those kinds of tab.


Praisew/guitar - 2008-03-12

I was looking back over the song and saw that they had "h" in some spots where the note goes down they should have put a "p" for "pull off". Which is the opposite of "hammering on" g--9p8--, this is where you pick the g string and finger the 9th fret then pull off the 9th fret leaving the 8 fret fingered, without picking the second note.


go4broke28 - 2008-11-14

u r all a little off on the post chorus. It is

B--9-9-7-9-11-11-9-11-12-12-11-12-143

Try it out guys.
GuitarHero


manic dr1ver - 2008-12-16

its not in the right tuning i think it has to be half a step lower
watch the film clip for it and u'll see what i mean


Add a comment/correction

Complimentary Christian Ringtones
Dadamobile and CGR have teamed up to bring your favorite Christian artists right to your phone. Sign up today and get 10 complementary ringtones!
Tab Country
Did you know CGR has a sister site w/ country guitar tabs? Well we do! Its called Tab Country. It has a great archive with a lot of country tabs.
Rockin Tabs
Are you looking for a site that has rock guitar tabs? Then Rockintabs.com is the place for you. It is a budding site with many rock guitar tabs. Submit your tab today.
Tab Gallery
Tab Gallery has a compilation of christian, rock, and country tabs all in one place. Come visit us.