Guitar Tabs
song title    band name

Join Us Today!

Don't strum alone...
be a part of the largest online Christian music community. Browse thousands of guitar tabs and chat w/ musicians like yourself.


It's Free!

This tab has been rated a 4.40 out of 5 for accuracy. (5 votes)Sorry, but you must be logged in to rate this tab.
Click here to log-in, or you can click here to register.
(Registration is free)

All songs owned by corresponding publishing company. If you make copies of any song on this website, be sure to report your usage to CCLI.
Submitted by: Adam K

Absolute-Thousand Foot Krutch
Copyright  2005 Tooth and Nail Records
Drop D Tuning D-A-D-G-B-E

h=hammer on
s=slide
b=bend
v=vibrato

Intro
B[----6-----5----3-----5s6--]
G[-5h7-7--5---2h3--5--5-----]x2

Verse 1
B[----6-----5----3-----5s6--]
G[-5h7-7--5---2h3--5--5-----]x4

Pre-Chorus
G[---------7/7---x-7-----------------7/7---x-7----------]
D[-0--0/0--x/x-0-x-x-0-7-3-5-0--0/0--x/x-0-x-x-0-3-5-0--]
A[-0--0/0--5/5-0-x-5-0-7-3-5-0--0/0--5/5-0-x-5-0-3-5-0--]
D[-0--0/0------0-x---0-7-3-5-0--0/0------0-x---0-3-5-0--]

Chorus
G[--------------------------------------------5/5/5/5-x5-----]
D[-8/8xx-x3/3xx-x5/5/5/5/0/0/0/0-8/8xx-x3/3xx-5/5/5/5-x5-x7--]
A[-8/8xx-x3/3xx-x5/5/5/5/0/0/0/0-8/8xx-x3/3xx-3/3/3/3-x3-x7--]
D[-8/8xx-x3/3xx-x5/5/5/5/0/0/0/0-8/8xx-x3/3xx------------x7--]

G[--------------------------------------------5/5/5/5----------]
D[-8/8xx-x3/3xx-x5/5/5/5/0/0/0/0-8/8xx-x3/3xx-5/5/5/5-7-3-5-0--]
A[-8/8xx-x3/3xx-x5/5/5/5/0/0/0/0-8/8xx-x3/3xx-3/3/3/3-7-3-5-0--]
D[-8/8xx-x3/3xx-x5/5/5/5/0/0/0/0-8/8xx-x3/3xx---------7-3-5-0--]

Post-Chorus
E[---------------------------0h1--]
B[-----3------3-------3----3-3/3--]
G[---2--------0-------0----3------]
D[-0-------2-------0--------------]
A[-------3-------2-------1--------]

Verse 2
B[----6-----5----3-----5s6--]
G[-5h7-7--5---2h3--5--5-----]x3
Then
A[-5/5/5/5/5/5/5//5/3h5/5/5/5/5/5/5/5b-]

Pre-Chorus

Chorus

Bridge
E[---------------------------0h1--]
B[-----3------3-------3----3-3/3--]
G[---2--------0-------0----3------]
D[-0-------2-------0--------------]x8
A[-------3-------2-------1--------]
Near the end Gtr. 2 comes in with this
B[-------------------------------------15/15-]
G[-10v/7v--10v/7v--10v/7v--7-9-10-12-14------]

Chorus 2
G[--------------------------------------------5/5/5/5-x5-----]
D[-8/8xx-x3/3xx-x5/5/5/5/0/0/0/0-8/8xx-x3/3xx-5/5/5/5-x5-x7--]
A[-8/8xx-x3/3xx-x5/5/5/5/0/0/0/0-8/8xx-x3/3xx-3/3/3/3-x3-x7--]x3
D[-8/8xx-x3/3xx-x5/5/5/5/0/0/0/0-8/8xx-x3/3xx------------x7--]

G[--------------------------------------------5/5/5/5----------]
D[-8/8xx-x3/3xx-x5/5/5/5/0/0/0/0-8/8xx-x3/3xx-5/5/5/5-7-3-5-0--]
A[-8/8xx-x3/3xx-x5/5/5/5/0/0/0/0-8/8xx-x3/3xx-3/3/3/3-7-3-5-0--]
D[-8/8xx-x3/3xx-x5/5/5/5/0/0/0/0-8/8xx-x3/3xx---------7-3-5-0--]

This is a more fuller version
even though I left out most of the second guitar.
I left it out because some of it's too high recognize notes.
Well, anyway, enjoy.Please Rate.

Tabbed by Adam K

Comments about this tab

Dani_Boy - 2006-03-02

What do you mean with "/"? It usually means to slide up, but you use "s" for that.


Adam K - 2006-03-13

i just use the / to seperate the numbers. like that way,say if i put
1111 you wouldn't know what it was unless I put 11/1/1.


Dani_Boy - 2006-03-23

kinda good idea I guess with the "/". Hey listen, your tab is the best on the site so far, (Check the dates for when I posted this.) but you got some mistakes. I'm not trying to be rude, but I think I'll tab a version myself. Really nice tab.


akaukal - 2006-03-28

i think this tab is a little more complicated than it needs to be but i found nothing wrong with the notes.


SHARK - 2006-04-20

Iwas going to say how on earth do u slide to the same fret ure already on!!!


perpetualfaith - 2006-09-15

the ending chorus is played diferently one its played through with no little breaks like they do and it doesnt do the
-7-3-5-0
-7-3-5-0
-7-3-5-0
at the end of them its something different i had to listen to it several times before i convinced myself it was right other then that its all good keep it AAE


|)rink)v(tn|)ew - 2007-01-04

Its def no too complicated tho, I think its better to be as precise as you can but the only prob with that is that when TFK play any song, they dont playit the same way everytime. I Like this tab dude, good job...my bad, awesome job.


Add a comment/correction

Complimentary Christian Ringtones
Dadamobile and CGR have teamed up to bring your favorite Christian artists right to your phone. Sign up today and get 10 complementary ringtones!
Tab Country
Did you know CGR has a sister site w/ country guitar tabs? Well we do! Its called Tab Country. It has a great archive with a lot of country tabs.
Rockin Tabs
Are you looking for a site that has rock guitar tabs? Then Rockintabs.com is the place for you. It is a budding site with many rock guitar tabs. Submit your tab today.
Tab Gallery
Tab Gallery has a compilation of christian, rock, and country tabs all in one place. Come visit us.